VGJam Tabs Battletoads
Battletoads
"Theme" - Guitar tab
Platform(s):Nintendo Entertainment System
Tabbed by:Chris Cirillo
Last modified:2001-09-09
Print it:Original file (.TXT)
|------------------------------------|
|   BATTLETOADS THEME SONG           |
|------------------------------------|
|This is the MAIN THEME SONG         |
|from the video game BATTLETOADS     |
|on the NINTENDO ENTERTAINMENT SYSTEM|
|------------------------------------|
|Tabbed By: CHRIS CIRILLO            |
|------------------------------------|

INTRO (part 1)
|------------------------------------|
|--------------9/12-12-12-12-13-11---|
|--------------7/10-10-10-10-11-9----|
|------------------------------------|
|-14\--5--7-9------------------------|
|-12\--3--5-7------------------------|

INTRO (part 2)
|------------------------------------|
|------------------------------------|
|------------------------------------|
|------------------------------------|
|-9-5-7--3--3-3-4-5-6-7--------------|
|-7-3-5--1--1-1-2-3-4-5--------------|

play INTRO (part 1)

play INTRO (part 2)

THE SO CALLED "SOLO"
|---------------------------------------------------|
|-13-13-12-11-11-13-11-11-12-13--12/15-14-13-12-11--|
|-11-11-10-9--9--11-9--9--10-11--10/13-12-11-10-9---|
|---------------------------------------------------|
|---------------------------------------------------|
|---------------------------------------------------|

 ICQ : 102747138
EMAIL: Raven_1369@hotmail.com

If anyone has the tab for "Halo" by Soil or the Toejam and Earl Theme Song,
Please email me.  Thanks.

VGJam Tabs Battletoads - "Theme"
Tabs database last modified Tuesday, 01-Nov-2016 19:14:53 UTC.
Copyright © 1999 - 2016 VideoGameJam.com. All rights reserved.