VGJam Tabs Blaster Master
Blaster Master
"Level 1" - Guitar tab
Platform(s):Nintendo Entertainment System
Tabbed by:Eli Krause
Last modified:2004-07-25
Print it:Original file (.TXT)
Hear it:MIDI file
Blaster Master
Level 1
Guitar - Standard tuning

Eli Krause
ottaviostarrett@stalag13.com


Intro
0:00

----------------------------------------------------------------------------------------
----------------------------------------------------------------------------------------
----------------------------------------------------------------------------------------
----------------------------------------17-17-17-17-17-17-17-17-17-17-17-17-17----------
-17-17-17-17-17-17-17-17-17-17-17-17-17-------------------------------------------------
----------------------------------------------------------------------------------------

----------------------------------------------------------------------------------------
----------------------------------------------------------------------------------------
-17-17-17-17-17-17-17-17-17-17-17-17-17-17-17-17-17-17-17-17-17-17-17-17-17-17-17-17-17-
----------------------------------------------------------------------------------------
----------------------------------------------------------------------------------------
----------------------------------------------------------------------------------------

Part A (x2)
0:07

--------------13---13-12-------12-----------------------------------
--------12-15------------15-13----15--------------------------------
-12--12-------------------------------------------------------------
------------------------------------------------8-8-8-10--8-8-8-10--
--------------------------------------------------------------------
--------------------------------------------------------------------

--------------13---12-13-15-13-12----12-----------------------------
--------12-15---------------------13----15--------------------------
-12--12-------------------------------------------------------------
------------------------------------------------8-8-8-10--8-8-8-10--
--------------------------------------------------------------------
--------------------------------------------------------------------

Transition 1
0:35

-12-----
----15--
--------
--------
--------
--------

Part B
0:39

----------------------------------17-15----------------------------
-14---15-17-------15---14---15-17-------15----15-------------------
------------15-12--------------------------16----12----------------
-------------------------------------------------------------------
-------------------------------------------------------------------
-------------------------------------------------------------------

-------------------------------------------------------------------
-14---15-17-------15---12-14-------11------------------------------
------------15-12------------15-11-------11------------------------
--------------------------------------11---------------------------
-------------------------------------------------------------------
-------------------------------------------------------------------

Transition 2 (x2)
0:53

---------------------------------------------------------------------------
---------------------------------------------------------------------------
---------------------------------------------------------------------------
---------------------------------------------------------------------------
-8-8-8-10--8-8-8-10---8-8-8-8-8-10--8-8-8-10-------------------------------
---------------------------------------------------------------------------

Part C
1:01

----------------------------------------------13--------------------------
----------------------------------------10-13-----------------------------
-12---12-7-12-10--9-7---12---12-7-12-10-----------------------------------
--------------------------------------------------------------------------
--------------------------------------------------------------------------
--------------------------------------------------------------------------

Back to Part A

VGJam Tabs Blaster Master - "Level 1"
Tabs database last modified Tuesday, 01-Nov-2016 19:14:53 UTC.
Copyright © 1999 - 2016 VideoGameJam.com. All rights reserved.