VGJam Tabs Blaster Master
Blaster Master
"Level 1" - Guitar tab
Platform(s):Nintendo Entertainment System
Tabbed by:Sni
Last modified:2004-07-30
Print it:Original file (.TXT)
Hear it:MIDI file
Game: Blaster Master (NES)
Title: Level 1

Tabbed By: Sni
Note: If you would like to make a request, email me.
      Providing a MIDI, or even an MP3 if its from a newer
      game would be great.

Riff 1:

e|------------10-13---13-12-10----12-10---|------------------------------------|
B|---------12------------------13---------|------------------------------------|
G|-12---12--------------------------------|------------------------------------|
D|----------------------------------------|-8-8-8-10---8-8-8-10----------------|
A|----------------------------------------|------------------------------------|
E|----------------------------------------|------------------------------------|

e|-----------10-13---13-17-15-13-12----12-10---|------------------------------------|
B|--------12------------------------13---------|------------------------------------|
G|-12--12--------------------------------------|------------------------------------|
D|---------------------------------------------|-8-8-8-10---8-8-8-10----------------|
A|---------------------------------------------|------------------------------------|
E|---------------------------------------------|------------------------------------|


       Repeat These Bars 2x
                Then

Riff 2:

e|-11-10------------------------------|-9---10-12------10------------------|
G|---------8--------------------------|-----------10-8---------------------|
D|-----------7-5-4--------------------|------------------------------------|
A|------------------------------------|------------------------------------|
E|------------------------------------|------------------------------------|

e|-9-10-12-17-15----------------------|------------------------------------|
B|---------------15----15-------------|-18------17-------15----------------|
G|------------------16----------------|------19---------------16-----------|
D|------------------------17----------|------------19-17-------------------|
A|------------------------------------|------------------------------------|
E|------------------------------------|------------------------------------|

e|------------------------------------|------------------------------------|
B|-14---------------------------------|------------------------------------|
G|----15----15------------------------|------------------------------------|
D|-------16-------16------------------|-8-8-8-10---8-8-8-10----------------|
A|-------------16---------------------|------------------------------------|
E|------------------------------------|------------------------------------|

e|------------------------------------|------------------------------------|
B|------------------------------------|------------------------------------|
G|------------------------------------|------------------------------------|
D|-8-8-8-8-8-10---8-8-8-10------------|-8-8-8-10---8-8-8-10----------------|
A|------------------------------------|------------------------------------|
E|------------------------------------|------------------------------------|

e|------------------------------------|-------------------3----------------|
B|------------------------------------|-8---8---8-6---5-3------------------|
G|------------------------------------|-------7----------------------------|
D|-8-8-8-8-8-10---8-8-8-10------------|------------------------------------|
A|------------------------------------|------------------------------------|
E|------------------------------------|------------------------------------|

e|----------------8-13----------------|
B|-8---8-6---10-----------------------|
G|---7--------------------------------|        Repeat Riff 1
D|------------------------------------|         A Few Times
A|------------------------------------|
E|------------------------------------|

VGJam Tabs Blaster Master - "Level 1"
Tabs database last modified Tuesday, 01-Nov-2016 19:14:53 UTC.
Copyright © 1999 - 2016 VideoGameJam.com. All rights reserved.