VGJam Tabs Blaster Master
Blaster Master
"Level 2" - Guitar tab
Platform(s):Nintendo Entertainment System
Tabbed by:djrudeflow
Last modified:2000-08-24
Print it:Original file (.TXT)
Hear it:MIDI file
Title: blastermaster (level2)nes   sunsoft
Transcribed by: djrudeflow
Email: djrudeflow@aol.com

|-----------------------------------------------------|
|-----------------------------------------------------|
|-7-7-7---7--7-7-6-7-9-8-6----7-7-7--7--7-6--4-6-7-9-8|
|-----------------------------------------------------|
|-5-5-5---5--5-5-4-5-7-6-4----5-5-5--5--5-4--2-4-5-7-6|
|-----------------------------------------------------|


|----------------------------------------------------------------------|
|----------------------------------------------------------------------|
|-7----4----7---6------6---5--4--3--4-------5------5-----6-----6-------|
|---------------------------------------------8--6---8-6---8-6---8-6---|
|-5----2----5---4------4---3--2--1--2----------------------------------|
|----------------------------------------------------------------------|


|----------------------------------------------------------------------------
|----------------------------------------------------------------------------
|-4------4-5-----5-6------5--------4---------------4-------4-5------5-6------
|----------------------------------------------------------------------------
|----------------------------------------------------------------------------
|----------------------------------------------------------------------------


------------|
------------|
-6-----6----|
------------|
------------|
------------|

VGJam Tabs Blaster Master - "Level 2"
Tabs database last modified Tuesday, 01-Nov-2016 19:14:53 UTC.
Copyright © 1999 - 2016 VideoGameJam.com. All rights reserved.