VGJam Tabs Guilty Gear X2 #Reload
Guilty Gear X2 #Reload
"Go For It (Continue)" - Guitar tab
Platform(s):Xbox
Tabbed by:Dampi
Last modified:2004-07-06
Print it:Original file (.TXT)
#----------------------------------PLEASE NOTE---------------------------------#
#This file is the author's own work and represents their interpretation of the #
#song. You may only use this file for private study, scholarship, or research. #
#------------------------------------------------------------------------------#

Guilty Gear XX #Reload (X-Box)
"Go For It (Continue)"

Originally composed by: Unknown
Copyright  Sammy
------------------------------------------------------------------------------
Tabbed by: Dampi (orochi_iori_2650@hotmail.com)
For http://www.kontek.net/vgjam/
------------------------------------------------------------------------------



E||-------------------||----------------------------------------||
B||-------------------||----------------------------------------||
G||-------------------||*--------------------------------------*||
D||--5----------------||*--------------------------------------*||
A||--5----------------||---------3--6--5--3--5--3---------------||
E||--3----------------||---3--5--------------------5--3--4--5---||


                                                                          3x
--------------------------------||----------------------------------------||
--------------------------------||----------------------------------------||
--------------------------------||*--------------------------------------*||
----5----5----5----5----5----5--||*--------------------------------------*||
----5----5----5----5----5----5--||---------3--6--5--3--5--3---------------||
----3----3----3----3----3----3--||---3--5--------------------5--3--4--5---||


                                  2x
----------------------------------||--------------------------------------|
----------------------------------||--------------------------------------|
*--------------------------------*||--------------------------------------|
*----5----5----5----5----5----5--*||--------------------------------------|
-----5----5----5----5----5----5---||--------3--6--5--3--5--3--------------|
-----3----3----3----3----3----3---||--3--5--------------------5--3--4--5--|



--------------------------------------|--------------------------------------|
--------------------------------------|--------------------------------------|
--------------------------------------|--------------------------------------|
--------------------------------5-----|--7--5--------------------------------|
--------3--6--5--3--7--6--5--------7--|--------7--6--5-----5--------------3--|
--3--5-----------------------8--------|-----------------8-----8--5--3--5-----|



-------------------||
-------------------||
-------------------||
--5----------------||
--5----------------||
--3----------------||


VGJam Tabs Guilty Gear X2 #Reload - "Go For It (Continue)"
Tabs database last modified Saturday, 12-Apr-2014 00:15:37 CDT.
Copyright © 1999 - 2014 VideoGameJam.com. All rights reserved.