VGJam Tabs Bubble Bobble
Bubble Bobble
"Level 100" - Guitar tab
Platform(s):Nintendo Entertainment System
Tabbed by:snocore_2000
Last modified:2000-05-06
Print it:Original file (.TXT)
Hear it:MIDI file
Bubble Bobble level 100 song (nintendo)
tabbed by:steve email:snocore_2000@hotmail.com
this is hard to play up to speed so tremelo pick the "fast part" from flight 
of the bumble bee!


"slow"                              "fast so try tremelo picking!"
E -----------0---0-|-5---5-10-3-3-|-12-11-10-9-8-9-10-11-12-11-10-9-8-
B -----0---0-------|---4----------|-----------------------------------
G -------------3---|--------------|-----------------------------------
D ---4---3---------|--------------|-----------------------------------
A -3---------------|--------------|-----------------------------------
E -----------------|--------------|-----------------------------------


E 9-10-11-|-12-11-10-9-11-10-9-8-10-9-8-7-8-7-6-5-|-17-16-15-14-13-14-
B --------|---------------------------------------|-------------------
G --------|---------------------------------------|-------------------
D --------|---------------------------------------|-------------------
A --------|---------------------------------------|-------------------
E --------|---------------------------------------|-------------------


E 15-16-17-16-15-14-13-14-15-16-|-17-16-15-14-16-15-14-13-15-14-13-12-
B ------------------------------|-------------------------------------
G ------------------------------|-------------------------------------
D ------------------------------|-------------------------------------
A ------------------------------|-------------------------------------
E ------------------------------|-------------------------------------


E 14-13-12-11-|-12-11-10-9-8-9-10-11-12-11-10-9-8-9-10-11-|-12-11-10-9
B ------------|-------------------------------------------|-----------
G ------------|-------------------------------------------|-----------
D ------------|-------------------------------------------|-----------
A ------------|-------------------------------------------|-----------
E ------------|-------------------------------------------|-----------


E -11-10-9-8-10-9-8-7-8-7-6-5-|-19-18-17-16-15-16-17-18-19-18-17-16-15
B ----------------------------|---------------------------------------
G ----------------------------|---------------------------------------
D ----------------------------|---------------------------------------
A ----------------------------|---------------------------------------
E ----------------------------|---------------------------------------


E -16-17-18-|-19-18-17-16-15-14-13-12-11-10-9-8-7-6-5-4-|-----------0-
B ----------|-------------------------------------------|-----0---0---
G ----------|-------------------------------------------|-------------
D ----------|-------------------------------------------|---4---3-----
A ----------|-------------------------------------------|-3-----------
E ----------|-------------------------------------------|-------------


E --0-|-5---5-10-3-3-|-12-11-10-9-8-9-10-11-12-11-10-9-8-9-10-11-|-12-
B ----|---4----------|-------------------------------------------|----
G 3---|--------------|-------------------------------------------|----
D ----|--------------|-------------------------------------------|----
A ----|--------------|-------------------------------------------|----
E ----|--------------|-------------------------------------------|----


E 11-10-9-11-10-9-8-10-9-8-7-8-7-6-5-|-17-16-15-14-13-14-15-16-17-16-1
B -----------------------------------|--------------------------------
G -----------------------------------|--------------------------------
D -----------------------------------|--------------------------------
A -----------------------------------|--------------------------------
E -----------------------------------|--------------------------------


E 5-14-13-14-15-16-|-17-16-15-14-16-15-14-13-15-14-13-12-14-13-12-11-|
B -----------------|-------------------------------------------------|
G -----------------|-------------------------------------------------|
D -----------------|-------------------------------------------------|
A -----------------|-------------------------------------------------|
E -----------------|-------------------------------------------------|


E -12-11-10-9-8-9-10-11-12-11-10-9-8-9-10-11-|-12-11-10-9-11-10-9-8-10
B -------------------------------------------|------------------------
G -------------------------------------------|------------------------
D -------------------------------------------|------------------------
A -------------------------------------------|------------------------
E -------------------------------------------|------------------------


E -9-8-7-8-7-6-5-|-19-18-17-16-15-16-17-18-19-18-17-16-15-16-17-18-|-1
B ---------------|-------------------------------------------------|--
G ---------------|-------------------------------------------------|--
D ---------------|-------------------------------------------------|--
A ---------------|-------------------------------------------------|--
E ---------------|-------------------------------------------------|--
                                           "slow"
E 9-18-17-16-15-14-13-12-11-10-9-8-7-6-5-4-|-----------0---0-|-5---5-1
B -----------------------------------------|-----0---0-------|---4----
G -----------------------------------------|-------------3---|--------
D -----------------------------------------|---4---3---------|--------
A -----------------------------------------|-3---------------|--------
E -----------------------------------------|-----------------|--------
         "fast again"
E 0-3-3-|-12-11-10-9-8-9-10-11-12-11-10-9-8-9-10-11-|-12-11-10-9-11-10
B ------|-------------------------------------------|-----------------
G ------|-------------------------------------------|-----------------
D ------|-------------------------------------------|-----------------
A ------|-------------------------------------------|-----------------
E ------|-------------------------------------------|-----------------


E -9-8-10-9-8-7-8-7-6-5-|-17-16-15-14-13-14-15-16-17-16-15-14-13-14-15
B ----------------------|---------------------------------------------
G ----------------------|---------------------------------------------
D ----------------------|---------------------------------------------
A ----------------------|---------------------------------------------
E ----------------------|---------------------------------------------


E -16-|-17-16-15-14-16-15-14-13-15-14-13-12-14-13-12-11-|-12-11-10-9-8
B ----|-------------------------------------------------|-------------
G ----|-------------------------------------------------|-------------
D ----|-------------------------------------------------|-------------
A ----|-------------------------------------------------|-------------
E ----|-------------------------------------------------|-------------


E -9-10-11-12-11-10-9-8-9-10-11-|-12-11-10-9-11-10-9-8-10-9-8-7-8-7-6-
B ------------------------------|-------------------------------------
G ------------------------------|-------------------------------------
D ------------------------------|-------------------------------------
A ------------------------------|-------------------------------------
E ------------------------------|-------------------------------------


E 5-|-19-18-17-16-15-16-17-18-19-18-17-16-15-16-17-18-|-19-18-17-16-15
B --|-------------------------------------------------|---------------
G --|-------------------------------------------------|---------------
D --|-------------------------------------------------|---------------
A --|-------------------------------------------------|---------------
E --|-------------------------------------------------|---------------


E -14-13-12-11-10-9-8-7-6-5-4-|
B ----------------------------|
G ----------------------------|
D ----------------------------|
A ----------------------------|
E ----------------------------|


my hand hurts!

VGJam Tabs Bubble Bobble - "Level 100"
Tabs database last modified Tuesday, 01-Nov-2016 19:14:53 UTC.
Copyright © 1999 - 2016 VideoGameJam.com. All rights reserved.