VGJam Tabs Bubble Bobble
Bubble Bobble
"Title screen" - Guitar tab
Platform(s):Nintendo Entertainment System
Tabbed by:snocore_2000
Last modified:2000-05-06
Print it:Original file (.TXT)
Hear it:MIDI file
The title song from bubble bobble (nintendo)
tabbed by:steve email:snocore_2000@hotmail.com




E -6-5-3-1-5-3-1---|-3-1-----1-----|---------------1-|-1-3-5-3-1-1-3-5
B ---------------4-|-----4-3---3-1-|---1-3-4-1-3-4---|----------------
G -----------------|---------------|-3---------------|----------------
D -----------------|---------------|-----------------|----------------
A -----------------|---------------|-----------------|----------------
E -----------------|---------------|-----------------|----------------


E -|-6-5-3-1-5-3-1---|-3-1-----1-----|---------------1-|-1-3-5-1-6-1-3
B -|---------------4-|-----4-3---3-1-|---1-3-4-1-3-4---|--------------
G -|-----------------|---------------|-3---------------|--------------
D -|-----------------|---------------|-----------------|--------------
A -|-----------------|---------------|-----------------|--------------
E -|-----------------|---------------|-----------------|--------------


E -4-|-5-1-3-5-|-6-1-3-5-|-8-1-3-5-|-10-6-8-10-|-11-11-11-10-8-|-10-10
B ---|---------|---------|---------|-----------|---------------|------
G ---|---------|---------|---------|-----------|---------------|------
D ---|---------|---------|---------|-----------|---------------|------
A ---|---------|---------|---------|-----------|---------------|------
E ---|---------|---------|---------|-----------|---------------|------


E -|-8-3-3-10-|-8-1-3-4-|-5-1-3-5-|-6-1-3-5-|-8-1-3-5-|-10-6-8-10-|-11
B -|----------|---------|---------|---------|---------|-----------|---
G -|----------|---------|---------|---------|---------|-----------|---
D -|----------|---------|---------|---------|---------|-----------|---
A -|----------|---------|---------|---------|---------|-----------|---
E -|----------|---------|---------|---------|---------|-----------|---


E -11-11-10-8-|-10-10-|-8-1-10-1-10-|-6-1-3-5-|
B ------------|-------|-------------|---------|
G ------------|-------|-------------|---------|
D ------------|-------|-------------|---------|
A ------------|-------|-------------|---------|
E ------------|-------|-------------|---------|

VGJam Tabs Bubble Bobble - "Title screen"
Tabs database last modified Tuesday, 01-Nov-2016 19:14:53 UTC.
Copyright © 1999 - 2016 VideoGameJam.com. All rights reserved.