VGJam Tabs Castlevania
Castlevania
"Intro and levels 1, 2, 3" - Guitar tab
Platform(s):Nintendo Entertainment System
Tabbed by:Cole Mitchell
Last modified:2000-01-05
Print it:Original file (.TXT)
CASTLEVANIA: INTRO, LEVELS 1-3
Composed by ???
Transcribed by Cole Mitchell (cole_mitchell@hotmail.com)


NOTE: Each space of two characters represents a 16th note. If the
numbers representing frets run into one another, assume
that the fret numbers are double digit, rather than single
digit 32nd notes, unless otherwise stated. For example,
-1212- is more likely to be two 16th notes on the twelfth
fret than four 32nd notes on the first and second fret.
___________________________________________________________________


INTRO
e-----------------9-----6--------|-------------6-9-12----11-------|
B-----------------------------8--|-----------8--------------------|
G--------------------------------|--------------------------------|
D--------------------------------|--------------------------------|
A--------------------------------|--------------------------------|
E--------------------------------|--------------------------------|
| |
e-----3-2-3-2-1-2----------------|--------------------------------|
B-3-4-------------8-----8--------|---------------8-8-----8--------|
G-----------------------------6--|-----------6-6------------------|
D--------------------------------|--------------------------------|
A--------------------------------|--------------------------------|
E--------------------------------|--------------------------------|
| |
G-----------------------------6-7|-------------6-7----------------|
D-0-1-5-4-5-4-3-4---------5-8----|---------5-8-----8-----7--------|
A---------------------4-5--------|-----4-5------------------------|
E-----------------3-6------------|-3-6----------------------------|


___________________________________________________________________




LEVEL 1
Dm Bb C
e-10-10---8-7--------------------|-5-----------5-----8------------|
B------------------------5-6-8---|-----------------8--------------|
G--------------------7-----------|-------7------------------------|
D--------------------------------|--------------------------------|
A--------------------------------|--------------------------------|
E--------------------------------|--------------------------------|
| |
e--------------------------------|--------------------------------|
B-10-10---8-8--------------------|-------------------8------------|
G--------------------7---7-5-5---|-7-----------7---5--------------|
D--------------------------------|-------8------------------------|
A--------------------------------|--------------------------------|
E--------------------------------|--------------------------------|
| |
G--------------------------------|-------3------------------------|
D--------------------------------|--------------------------------|
A-5---------5----------5---------|-1-----------1---3-----3--------|
E--------------------------------|--------------------------------|


Dm Bb C
e-10-10---8-7--------------------|-5-----------5------------------|
B------------------------5-6-8---|-----------------8--------------|
G--------------------7-----------|-------7-----------5------------|
D--------------------------------|--------------------------------|
A--------------------------------|--------------------------------|
E--------------------------------|--------------------------------|
| |
e--------------------------------|--------------------------------|
B-10-10---8-8--------------------|--------------------------------|
G--------------------7---7-5-5---|-7-----------7---5--------------|
D--------------------------------|-------8-----------5------------|
A--------------------------------|--------------------------------|
E--------------------------------|--------------------------------|
| |
G--------------------------------|-------3------------------------|
D--------------------------------|--------------------------------|
A-5---------5----------5---------|-1-----------1---3-----3--------|
E--------------------------------|--------------------------------|


Dm Bb
e-----------17----161716----------|-17--1716--1615--17--1716--1615--|
B-----15----------------18--------|---------------------------------|
G---------------------------------|---------------------------------|
D---------------------------------|---------------------------------|
A---------------------------------|---------------------------------|
E---------------------------------|---------------------------------|
| |
e-----------10----9-109-8---------|-----139-----------139-139-139-13|
B-----10--------------------------|---------------------------------|
G---------------------------------|-------------107-----------------|
D---------------------------------|---------------------------------|
A---------------------------------|---------------------------------|
E---------------------------------|---------------------------------|
| |
G---------------------------------|-------3---------------3---------|
D---------------------------------|---------------------------------|
A-5---------------5---------------|-1-----------1---1-----------1---|
E---------------------------------|---------------------------------|


A(+b9) Dm A(+b9) Dm
e-------0-----6---5--------------|-------0-----6---5--------------|
B-2---------------------6-----3--|-2---------------------6--------|
G--------------------------------|--------------------------------|
D--------------------------------|--------------------------------|
A--------------------------------|--------------------------------|
E--------------------------------|--------------------------------|
| |
e--------------------------------|--------------------------------|
B-------2-----5---3-----3--------|-------2-----5---3-----3--------|
G-2---------------------------3--|-2------------------------------|
D--------------------------------|--------------------------------|
A--------------------------------|--------------------------------|
E--------------------------------|--------------------------------|
| |
G--------------------------------|--------------------------------|
D--------------------------------|--------------------------------|
A-4---------------5--------------|-7---------------5--------------|
E--------------------------------|--------------------------------|


A(+b9) Dm
e-------0-----6---5--------------|-0-----3-----6---5-----7-----9--|
B-2---------------------6-----3--|--------------------------------|
G--------------------------------|--------------------------------|
D--------------------------------|--------------------------------|
A--------------------------------|--------------------------------|
E--------------------------------|--------------------------------|
| |
e--------------------------------|--------------------------------|
B-------2-----5---3-----3--------|-2-----2-----5---5-----5-----5--|
G-2---------------------------3--|--------------------------------|
D--------------------------------|--------------------------------|
A--------------------------------|--------------------------------|
E--------------------------------|--------------------------------|
| |
G--------------------------------|--------------------------------|
D--------------------------------|-----------------7--------------|
A-4---------------5--------------|-7------------------------------|
E--------------------------------|--------------------------------|


Dm Bb C
e-1010---------------------------|-----------1---------------3----|

B--------------------------------|--------------------------------|
G-----7-7------------------------|-3---3---3-------5---5---5------|
D--------------------------------|--------------------------------|
A--------------------------------|--------------------------------|
E--------------------------------|--------------------------------|
| |
e--------------------------------|--------------------------------|
B-1010---------------------------|-----------3---------------5----|
G--------------------------------|--------------------------------|
D-----7-7------------------------|-3---3---3-------5---5---5------|
A--------------------------------|--------------------------------|
E--------------------------------|--------------------------------|
| |
G--------------------------------|-------3------------------------|
D--------------------------------|--------------------------------|
A-5-----5---5-3-0-5--------------|-1-----------1---3---3---0-3----|
E--------------------------------|--------------------------------|




___________________________________________________________________


LEVEL 2
e--------------------------------|-10--------------------------8-10|
B--------------------------------|---------------------------10----|
G--------------------------------|---------------------------------|
D--------------------------------|---------------------------------|
A--------------------------------|---------------------------------|
E--------------------------------|---------------------------------|
| |
e--------------------------------|---------------------------------|
B--------------------------------|-------3-----1-------------------|
G--------------------------------|-----2-----2-----0-4-------------|
D-------------------------------0|-0-----------------------------0-|
A---------------------------0-3--|---------------------------0-3---|
E--------------------------------|---------------------------------|
| |
G--------------------------------|---------------------------------|
D--------------------------------|---------------------------------|
A---------------------------0-3-5|-5-5-5-5-5-5-5-5-5-5-5-5-5-0-3-5-|
E--------------------------------|---------------------------------|




e--------------------------------|--------------------------------|
B--------------------------------|--------------------------------|
G-----------2---------------4----|-----------2--------------------|
D-0---0---3-----------0---5------|-0---0---3----------------------|
A--------------------------------|-------------------------0-3----|
E--------------------------------|--------------------------------|
| |
e--------------------------------|--------------------------------|
B--------------------------------|--------------------------------|
G-----------2---------------4----|-----------2--------------------|
D-0---0---3-----------0---5------|-0---0---3----------------------|
A--------------------------------|-------------------------0-3----|
E--------------------------------|--------------------------------|
| |
G-----------2---------------4----|-----------2--------------------|
D-0---0---3-----------0---5------|-0---0---3----------------------|
A--------------------------------|-------------------------0-3----|
E--------------------------------|--------------------------------|


Dm Bb
e-------5------------------------|-4-5-4--------------------------|
B-3------------------------------|-------6------------------------|
G--------------------------------|--------------------------------|
D--------------------------------|--------------------------------|
A--------------------------------|--------------------------------|
E--------------------------------|--------------------------------|
| |
e--------------------------------|--------------------------------|
B-------3-------------2---1---0--|-3-5-3--------------------------|
G-2------------------------------|-------3------------------------|
D--------------------------------|--------------------------------|
A--------------------------------|--------------------------------|
E--------------------------------|--------------------------------|
| |
G-----------2---------------2----|--------------------------------|
D-0---0---3-----------0---3------|---------0-3-------------0-3----|
A--------------------------------|-1---1---------------1----------|
E--------------------------------|--------------------------------|


Dm Bb
e-------5------------------------|-4-5-4--------------------------|
B-3------------------------------|-------6------------------------|
G--------------------------------|--------------------------------|
D--------------------------------|--------------------------------|
A--------------------------------|--------------------------------|
E--------------------------------|--------------------------------|
| |
e--------------------------------|--------------------------------|
B-------3-------------2---1---0--|-3-5-3--------------------------|
G-2------------------------------|-------3------------------------|
D--------------------------------|--------------------------------|
A--------------------------------|--------------------------------|
E--------------------------------|--------------------------------|
| |
G-----------2---------------2----|--------------------------------|
D-0---0---3-----------0---3------|---------0-3-------------0------|
A--------------------------------|-1---1---------------1----------|
E--------------------------------|--------------------------------|




e-8---8-7---7-6---5---5-4---4-3--|-1------------------------------|
B--------------------------------|-------3------------------------|
G--------------------------------|--------------------------------|
D--------------------------------|--------------------------------|
A--------------------------------|--------------------------------|
E--------------------------------|--------------------------------|
| |
e-8---8-7---7-6---5---5-4---4-3--|-1------------------------------|
B--------------------------------|-------3------------------------|
G--------------------------------|--------------------------------|
D--------------------------------|--------------------------------|
A--------------------------------|--------------------------------|
E--------------------------------|--------------------------------|
| |
G--------------------------------|-15----14----13--15----14----13-|
D--------------------------------|--------------------------------|
A-0---0-0---0-0---0---0-0---0-0--|--------------------------------|
E--------------------------------|--------------------------------|


Abdim A
e--------------------------------|
B-----3-3---3-----2--------------|
G--------------------------------|
D--------------------------------|
A--------------------------------|
E--------------------------------|
|
e--------------------------------|
B--------------------------------|
G-----4-4---4-----2--------------|
D--------------------------------|
A--------------------------------|
E--------------------------------|
|
G--------------------------------|
D-----6--------------------------|
A--------------------------------|
E-4---------4-4---5--------------|




___________________________________________________________________


LEVEL 3 Dm
e--------------------------------|-----1-1-1-0-1---3---1-1-1-0-1--|
B--------------------------------|--------------------------------|
G--------------------------------|--------------------------------|
D--------------------------------|--------------------------------|
A--------------------------------|--------------------------------|
E--------------------------------|--------------------------------|
| |
e--------------------------------|--------------------------------|
B-------------------------------1|-3---------------------------3-1|
G-----------------------------2--|-----2-2-2-2-2---2---2-2-2-2----|
D--------------------------------|--------------------------------|
A--------------------------------|--------------------------------|
E--------------------------------|--------------------------------|
| |
G--------------------------------|--------------------------------|
D--------------------------------|--------------------------------|
A-----------------------------0-3|-5-5-5-5-5-5-5-5-5-5-5-5-5-5-5-3|
E--------------------------------|--------------------------------|


Bb Dm
e-----1-1-1-0-1---3---1-1-1-0-1--|-----1-1-1-0-1---3---1-1-1-0-1--|
B--------------------------------|--------------------------------|
G--------------------------------|--------------------------------|
D--------------------------------|--------------------------------|
A--------------------------------|--------------------------------|
E--------------------------------|--------------------------------|
| |
e--------------------------------|--------------------------------|
B-------------------------------1|-3---------------------------3-1|
G-3-----3-3-3-3---3---3-3-3-3-2--|-------2-2-2-2---2---2-2-2-2----|
D--------------------------------|--------------------------------|
A--------------------------------|--------------------------------|
E--------------------------------|--------------------------------|
| |
G--------------------------------|--------------------------------|
D--------------------------------|--------------------------------|
A-1-1-1-1-1-1-1-1-1-1-1-1-1-1-0-3|-5-5-5-5-5-5-5-5-5-5-5-5-5-5-5-3|
E--------------------------------|--------------------------------|


Bb (9/8 meter)
e-----1-1-1-0-1---3---1-1-1-0-1---1|-----12----11----10----9--------|
B----------------------------------|--------------------------------|
G----------------------------------|--------------------------------|
D----------------------------------|--------------------------------|
A----------------------------------|--------------------------------|
E----------------------------------|--------------------------------|
| |
e----------------------------------|-----8-----7-----6-----5--------|
B----------------------------------|-----------------------------1-3|
G-3-----3-3-3-3---3---3-3-3-3-3---3|---------------------------2----|
D----------------------------------|--------------------------------|
A----------------------------------|--------------------------------|
E----------------------------------|--------------------------------|
| |
G----------------------------------|--------------------------------|
D----------------------------------|--------------------------------|
A-1-1-1-1-1-1-1-1-1-1-1-1-1-1-1---1|-0---------------0-----0---0-3-5|
E----------------------------------|--------------------------------|


Dm
e-----12----11----10----9--------|-5-4-5-4-5-----5---5-4-5-------5|
B--------------------------------|-----------3-6-----------3-6----|
G--------------------------------|--------------------------------|
D--------------------------------|--------------------------------|
A--------------------------------|--------------------------------|
E--------------------------------|--------------------------------|
| |
e-----8-----7-----6-----5--------|---------------1---------------1|
B-----------------------------1--|-3-3-3-3-3---3-----3-3-3---3----|
G---------------------------2---0|-----------2-------------2------|
D--------------------------------|--------------------------------|
A--------------------------------|--------------------------------|
E--------------------------------|--------------------------------|
| |
G--------------------------------|---7---7---7---7---7---7---7---7|
D--------------------------------|--------------------------------|
A-0---------------0-----0---0-3--|-5---5---5---5---5---5---5---5--|
E-------------------------------3|--------------------------------|


Bb Bb
e-----8---------8----------------|-----8---------8---------13--12-|
B---6---------6------------------|---6---------6------------------|
G-7---------7--------------------|-7---------7--------------------|
D--------------------------------|--------------------------------|
A--------------------------------|--------------------------------|
E--------------------------------|--------------------------------|
| |

e-----1---------1----------------|-----1---------1---------10--8--|
B---3---------3-----------2---3--|---3---------3------------------|
G-3---------3---------3----------|-3---------3--------------------|
D--------------------------------|--------------------------------|
A--------------------------------|--------------------------------|
E--------------------------------|--------------------------------|
| |
G--------------------------------|---7---7---7---7---7---7---7---7|
D---8---8---8---8---8---8---8---8|--------------------------------|
A--------------------------------|-5---5---5---5---5---5---5---5--|
E-6---6---6---6---6---6---6---6--|--------------------------------|


C Dm
e-12------------12---------------|-----------10--------------10---|
B---13--13----------13--13-------|-----10--10----------10--10-----|
G-----12--12----------12--12-----|---10--10----------10--10-------|
D-----------14--------------14---|-12------------12---------------|
A--------------------------------|--------------------------------|
E--------------------------------|--------------------------------|
| |
e-12------------12---------------|-----------10--------------10---|
B---13--13----------13--13-------|-----10--10----------10--10-----|
G-----12--12----------12--12-----|---10--10----------10--10-------|
D-----------14--------------14---|-12------------12---------------|
A--------------------------------|--------------------------------|
E--------------------------------|--------------------------------|
| |
G--------------------------------|--------------------------------|
D-------------0-2-------------0-2|-0-----0---0-2-3-0-----0---0-2-3|
A-3-----3---3-----3-----3---3----|--------------------------------|
E--------------------------------|--------------------------------|


Dm C
e---------------------13--15--17-|---------------------12--13--15-|
B-6-----8-----10-----------------|-5-----6-----8------------------|
G--------------------------------|--------------------------------|
D--------------------------------|--------------------------------|
A--------------------------------|--------------------------------|
E--------------------------------|--------------------------------|
| |
e--------------------------------|--------------------------------|
B--------------------------------|--------------------------------|
G-7-----9-----10-----------------|-5-----7-----9------------------|
D--------------------------------|--------------------------------|
A--------------------------------|--------------------------------|
E--------------------------------|--------------------------------|
| |
G--------------------------------|--------------------------------|
D--------------------------------|--------------------------------|
A-5-5-5-5-5-5-5-5-5-5-5-5-5-5-5-5|-3-3-3-3-3-3-3-3-3-3-3-3-3-3-3-3|
E--------------------------------|--------------------------------|


Bb A
e---------------------10--12--13-|--------------------------------|
B-3-----5-----6------------------|-2-----3-----5------------------|
G--------------------------------|--------------------------------|
D--------------------------------|--------------------------------|
A--------------------------------|--------------------------------|
E--------------------------------|--------------------------------|
| |
e--------------------------------|--------------------------------|
B--------------------------------|--------------------------------|
G-3-----5-----7------------------|-2-----4-----6------------------|
D--------------------------------|--------------------------------|
A--------------------------------|--------------------------------|
E--------------------------------|--------------------------------|
| |
G--------------------------------|--------------------------------|
D--------------------------------|--------------------------------|
A-1-1-1-1-1-1-1-1-1-1-1-1-1-1-1-1|-0-0-0-0-0-0-0-0-0-0-0-0-0-0-0-0|
E--------------------------------|--------------------------------|


A
e--------------------------------|
B-5-------6-------8--------------|
G--------------------------------|
D--------------------------------|
A--------------------------------|
E--------------------------------|
|
e--------------------------------|
B--------------------------------|
G-6-------7-------9--------------|
D--------------------------------|
A--------------------------------|
E--------------------------------|
|
G--------------------------------|
D--------------------------------|
A-0-0-0-0-0-0-0-0-0-0-0-0-0-0-0-0|
E--------------------------------|

VGJam Tabs Castlevania - "Intro and levels 1, 2, 3"
Tabs database last modified Tuesday, 01-Nov-2016 19:14:53 UTC.
Copyright © 1999 - 2016 VideoGameJam.com. All rights reserved.