VGJam Tabs Castlevania
Castlevania
"Wicked Child" - Guitar tab
Platform(s):Nintendo Entertainment System
Tabbed by:Smeg
Last modified:2003-02-18
Print it:Original file (.TXT)
Hear it:MIDI file
Castlevania (NES) - Wicked Child (stage 3)

Composed by K. Yamashita and S. Terashima

Tabbed by Smeg (smeg@fefea.org)

Arranged slightly to sound better on guitar. No guarantees on accurate divisions of measures :)


 Intro: two guitars. The notes played by one guitar should ring while the other plays.

  e|------------------------------------|
  b|------------------------------------|
  g|-----2------------------------------|
  d|-2---0------------------------------|
  a|-0-3--------------------------------|
  E|------------------------------------|
   |                                    |
   |                                    |
  e|------------------------------------|
  b|------------------------------------|
  g|-------10-10-10-9-10--12-10-10-10-9-|
  d|--------7--7--7-7--7---7--7--7--7-7-|
  a|------------------------------------|
  E|------------------------------------|


  e|-------------------------------------|
  b|-------------------------------------|
  g|--2----------------------------------|
  d|--0---3------------------------------|
  a|----3-1------------------------------|
  E|-------------------------------------|
   |                                     |
   |                                     |
  e|-------------------------------------|
  b|-------------------------------------|
  g|-10-----10-10-10-9-10--12-10-10-10-9-|
  d|--7------8--8--8-8--8---8--8--8--8-8-|
  a|-------------------------------------|
  E|-------------------------------------|


  e|-------------------------------------|
  b|-------------------------------------|
  g|------2------------------------------|
  d|--2---0------------------------------|
  a|--0-3--------------------------------|
  E|-------------------------------------|
   |                                     |
   |                                     |
  e|-------------------------------------|
  b|-10-----10-10-10-9-10--12-10-10-10-9-|
  g|--8------7--7--7-7--7---7--7--7--7-7-|
  d|-------------------------------------|
  a|-------------------------------------|
  E|-------------------------------------|


  e|-------------------------------------|
  b|-------------------------------------|
  g|--2----------------------------------|
  d|--0---3------------------------------|
  a|----3-1------------------------------|
  E|-------------------------------------|
   |                                     |
   |                                     |
  e|-------------------------------------|
  b|-------------------------------------|
  g|-10-----10-10-10-9-10--12-10-10-10-9-|
  d|--7------8--8--8-8--8---8--8--8--8-8-|
  a|-------------------------------------|
  E|-------------------------------------|


  e|-----------8--7--6-|-5---------8--7--6-|
  b|-------------------|-------------------|
  g|-------------------|--------2----------|
  d|--3--3-2-----------|----2---0----------|
  a|--1--1-0-----------|----0-3------------|
  E|-------------------|-------------------|
   |                   |                   |
   |                   |                   |
  e|----------12-11-10-|-9--------12-11-10-|
  b|-------------------|-------------------|
  g|-10-10-------------|-------------------|
  d|--8--8-------------|-------------------|
  a|-------------------|-------------------|
  E|-------------------|-------------------|


  e|-5---------8--7--6-|-5---------8--7--6-|
  b|-------------------|-------------------|
  g|-------------------|--------2----------|
  d|----2--------------|----2---0----------|
  a|----0-3------------|----0-3------------|
  E|--------3----------|-------------------|
   |                   |                   |
   |                   |                   |
  e|-9--------12-11-10-|-9--------12-11-10-|
  b|-------------------|-------------------|
  g|-------------------|-------------------|
  d|-------------------|-------------------|
  a|-------------------|-------------------|
  E|-------------------|-------------------|


  e|-5--------|
  b|----------|
  g|----------|
  d|----2-----|
  a|----0-3---|
  E|--------3-|
   |          |
   |          |
  e|-9--------|
  b|----------|
  g|----------|
  d|----------|
  a|----------|
  E|----------|


 "Main" portion of the song:

  e|------------------------------------------|
  b|-o----------------------------------------|
  g|---14-13-14-13-14-------14-14-13-14-------|
  d|------------------12-15-------------12-15-|
  a|-o----------------------------------------|
  E|------------------------------------------|
   |                                          |
   |                                          |
  e|------------------------------------------|
  b|-o----------------------------------------|
  g|------------------------------------------|
  d|---12-12-12-12-12----12-15-12-12-12----12-|
  a|-o----------------12----------------12----|
  E|------------------------------------------|


  e|---------------------------------|
  b|----------13--------13-----------|
  g|-14------------------------12-13-|
  d|----12-15-----12-15-----15-------|
  a|---------------------------------|
  E|---------------------------------|
   |                                 |
   |                                 |
  e|---------------------------------|
  b|---------------------------------|
  g|---------------------------------|
  d|-15----12-15-----12-15-----------|
  a|----13--------13--------13-15-16-|
  E|---------------------------------|


  e|----------------------------------------|
  b|----------------------------------------|
  g|-14-13-14-13-14-------14-14-13-14-------|
  d|----------------12-15-------------12-15-|
  a|----------------------------------------|
  E|----------------------------------------|
   |                                        |
   |                                        |
  e|----------------------------------------|
  b|----------------------------------------|
  g|----------------------------------------|
  d|-12-12-12-12-12----12-15-12-12-12----12-|
  a|----------------12----------------12----|
  E|----------------------------------------|


  e|------------------------13-12-|
  b|----------13--------13--------|
  g|-14---------------------------|
  d|----12-15-----12-15-----------|
  a|------------------------------|
  E|------------------------------|
   |                              |
   |                              |
  e|------------------------------|
  b|------------------------15-13-|
  g|------------------------------|
  d|-15----12-15-----12-15--------|
  a|----13--------13--------------|
  E|------------------------------|


  e|-12-----------------12-----------------|
  b|----13----13------------13----13-------|
  g|-------12----12------------12----12----|
  d|----------------14------------------14-|
  a|---------------------------------------|
  E|---------------------------------------|


  e|----------------10------------------10-|
  b|-------10----10------------10----10----|
  g|----10----10------------10----10-------|
  d|-12-----------------12-----------------|
  a|---------------------------------------|
  E|---------------------------------------|


  e|-12-----------------12-----------------|
  b|----13----13------------13----13-------|
  g|-------12----12------------12----12----|
  d|----------------14------------------14-|
  a|---------------------------------------|
  E|---------------------------------------|


  e|----------------10------------------10-|
  b|-------10----10------------10----10----|
  g|----10----10------------10----10-------|
  d|-12-----------------12-----------------|
  a|---------------------------------------|
  E|---------------------------------------|


  e|-----------13-15-17-|----------12-13-15-|
  b|--------------------|-------------------|
  g|-10-12-14-----------|-9-10-12-----------|
  d|--------------------|-------------------|
  a|--------------------|-------------------|
  E|--------------------|-------------------|
   |                    |                   |
   |                    |                   |
  e|--------------------|-------------------|
  b|--------------------|-------------------|
  g|--7--9-10-----------|-5--7--9-----------|
  d|--------------------|-------------------|
  a|--------------------|-------------------|
  E|--------------------|-------------------|


  e|---------10-12-13-|-9-10-12--|
  b|------------------|----------|
  g|-7-9-10-----------|----------|
  d|------------------|----------|
  a|------------------|----------|
  E|------------------|----------|
   |                  |          |
   |                  |          |
  e|------------------|----------|
  b|------------------|----------|
  g|-3-5--7-----------|-2--4--6--|
  d|------------------|----------|
  a|------------------|----------|
  E|------------------|----------|


  e|-----------13-15-17-|----------12-13-15-|
  b|--------------------|-------------------|
  g|-10-12-14-----------|-9-10-12-----------|
  d|--------------------|-------------------|
  a|--------------------|-------------------|
  E|--------------------|-------------------|
   |                    |                   |
   |                    |                   |
  e|--------------------|-------------------|
  b|--------------------|-------------------|
  g|--7--9-10-----------|-5--7--9-----------|
  d|--------------------|-------------------|
  a|--------------------|-------------------|
  E|--------------------|-------------------|


  e|---------10-12-13-|-9-10-12--12-13-15----|
  b|------------------|--------------------o-|
  g|-7-9-10-----------|----------------------|
  d|------------------|----------------------|
  a|------------------|--------------------o-|
  E|------------------|----------------------|
   |                  |                      |
   |                  |                      |
  e|------------------|----------------------|
  b|------------------|--------------------o-|
  g|-3-5--7-----------|-2--4--6---6--7--9----|
  d|------------------|----------------------|
  a|------------------|--------------------o-|
  E|------------------|----------------------|

 Repeat from beginning of "main" melody (at the repeat sign).

VGJam Tabs Castlevania - "Wicked Child"
Tabs database last modified Tuesday, 01-Nov-2016 19:14:53 UTC.
Copyright © 1999 - 2016 VideoGameJam.com. All rights reserved.