VGJam Tabs Castlevania II: Simon's Quest
Castlevania II: Simon's Quest
"Bloody Tears" - Guitar tab
Platform(s):Nintendo Entertainment System
Tabbed by:devoid
Last modified:2001-08-15
Print it:Original file (.TXT)
Hear it:MIDI file
Castlevania 2 - Bloody Tears

This has been in quite a few Castlevania games, 
and in each game it changes 
a little, but this is the basic tune.
e:-----------------------------------------------------------------
B:---5p0h12p0h10p0h8p0h7p0h5p0h7p0h8p0h10p0h8p0h7p0h3p0h7p0h5p0----
G:-----------------------------------------------------------------
D:-----------------------------------------------------------------
A:-----------------------------------------------------------------
E:-----------------------------------------------------------------

e:------8--5-------------8--5-------------8--5-------5--6--8----5--6-
B:---8----------8--6--8----------8--5--8----------8------------------
G:-------------------------------------------------------------------
D:-------------------------------------------------------------------
A:-------------------------------------------------------------------
E:-------------------------------------------------------------------

e:------8--5-------------8--5-------------8--5-------5--6--8---
B:---8----------8--6--8----------8--5--8----------8------------
G:-------------------------------------------------------------
D:-------------------------------------------------------------
A:-------------------------------------------------------------
E:-------------------------------------------------------------

e:---5--7--9--12----------------------------
B:------------------------------------------
G:------------------------------------------
D:----------------9--7---9--7---9--7--------
A:----------------7--5---7--5---7--5--------
E:------------------------------------------

e:------------------------------------------------------------
B:------------------------------------------------------------
G:------------------------------------------------------------
D:--------------------9--7---9--7---9--7---10--12---9--10---7-
A:---8p0h7p0h5p0h3p0--7--5---7--5---7--5---8---10---7--8----5-
E:------------------------------------------------------------

Piece o' cake

VGJam Tabs Castlevania II: Simon's Quest - "Bloody Tears"
Tabs database last modified Tuesday, 01-Nov-2016 19:14:53 UTC.
Copyright © 1999 - 2016 VideoGameJam.com. All rights reserved.