VGJam Tabs Castlevania II: Simon's Quest
Castlevania II: Simon's Quest
"Silence of Daylight" - Guitar tab
Platform(s):Nintendo Entertainment System
Tabbed by:Krikkit
Last modified:2000-03-12
Print it:Original file (.TXT)
Hear it:MIDI file
Castlevania 2
"Bloody Tears" aka Daytime Music
As interpreted by Krikkit (laffkrikkit@hotmail.com)
Originally by, um...James Banana, I think?
Iíve probably got a wrong note or two in here(especially in the lick at the end), if you correct it for me, please mail me the corrections so I can start playing this right too.

Standard Tuning

I have basically just tracked the second square wave, and left the other for future projects.

Intro:

e 3--1----0-1-0---------------3-3-1----------0-1-0-----------------
B ---------------3----------1------------1----------3----------1---
G --------------------3-2-3------------3-----------------3-2-3-----
D -----------------------------------------------------------------
A -----------------------------------------------------------------
E -----------------------------------------------------------------
 
 ĎMainí theme: (x2)
 
e -------------------------------------2--
B 3--2--1------------------------1--4-----
G ---------0----0--2--0-------2-----------
D ------------------------4---------------
A ----------------------------------------
E ----------------------------------------

  Play around with alternate fingerings on this next part, for whatever makes you most comfortable. 

e --------------------------------------------1---------
B ------------1---------------3-1-1---------1---4---3---
G 0-0-------2---3-3-------0-3-------------2-------------
D -----0--4-------------0--------------3----------------
A ------------------------------------------------------
E ------------------------------------------------------


e -----------3-1--------3-------0-3-2-------------------
B 3--------3-------4---------1--------------------------
G ----0--3----------------------------------------------
D ------------------------------------------------------
A ------------------------------------------------------
E ------------------------------------------------------


e 3--1-------------3------------------------------------
B 3--1--3--------113------------------------------------
G ------2--------00------------------------------0------
D ------------------4445--------5--3--0--------550------
A ------------------4445--------5--3--0--------33-4445--
E ------------------------------------------------2223--

You can let the last note ring, or play this next lick and head right back to the main theme for a repeat if you want. For a comedic effect, switch styles, do it reggae or folk swing or something equally strange.

E --------------
B ----------2-3-
G --0-----2-----
D ------3-------
A ----4---------
E 3-------------

VGJam Tabs Castlevania II: Simon's Quest - "Silence of Daylight"
Tabs database last modified Tuesday, 01-Nov-2016 19:14:53 UTC.
Copyright © 1999 - 2016 VideoGameJam.com. All rights reserved.