VGJam Tabs Castlevania III: Dracula's Curse
Castlevania III: Dracula's Curse
"Aquarius" - Guitar tab
Platform(s):Nintendo Entertainment System
Tabbed by:ddevil
Last modified:2002-12-15
Print it:Original file (.TXT)
Hear it:MIDI file
Castlevania III / NES / Aquarius(Guitar 1)

Tabbed by: ddevil@evilgaming.net

-----------------------------------------------------------------------------------

Ah, classic.

E||--------------------|--------------------|--------------------|---------------------|
B||--------------------|--------------------|--------------------|---------------------|
G||--------------------|--------------------|--------------------|---------------------|
D||--7-------------7---|--7-------------7---|--7-------------7---|-----------5---------|
A||--------------------|--------------------|--------------------|--8-------------7----|
E||--------------------|--------------------|--------------------|---------------------|



--------------0---0------|--------------0-1-0------|--------------------------|
----------------6---3----|------------3-------3----|--3-1---------------------|
------------7---------2--|--2-------------------2--|-------3---3-2--0---0--3--|
--7----------------------|-------------------------|--------------------------|
-------------------------|-------------------------|--------------------------|
-------------------------|-------------------------|--------------------------|



--1-------------0-0-3-3-6-6-|--------------0---0------|--------------0-1-0------|
------3-----2-2-------------|----------------6---3----|------------3-------3----|
----------------------------|------------7---------2--|--2-------------------2--|
----------------------------|--7----------------------|-------------------------|
----------------------------|-------------------------|-------------------------|
----------------------------|-------------------------|-------------------------|



--------------------------|--1-------------0-0-3-3-6-6-|--7----------3-1-3-4-3-4-6-4-6-|
--3-1---------------------|------3-----2-2-------------|-------6-5-6-------------------|
-------3---3-2--0---0--3--|----------------------------|-------------------------------|
--------------------------|----------------------------|-------------------------------|
--------------------------|----------------------------|-------------------------------|
--------------------------|----------------------------|-------------------------------|



--5--------0-1-0-1-3-1-3-5-3-5-|--5-7-9-10--------10-12-13-----|
-------5-3---------------------|---------------10--------------|
-------------------------------|-------------------------------|
-------------------------------|-------------------------------|
-------------------------------|-------------------------------|
-------------------------------|-------------------------------|



-------11---13-------10---9--|--7----------3-1-3-4-3-4-6-4-6-|
--14------------11-----------|-------6-5-6-------------------|
-----------------------------|-------------------------------|
-----------------------------|-------------------------------|
-----------------------------|-------------------------------|
-----------------------------|-------------------------------|



--5--------0-1-0-1-3-1-3-5-3-5-|--5-7-9-10--------10-12-13-----|
-------5-3---------------------|---------------10--------------|
-------------------------------|-------------------------------|
-------------------------------|-------------------------------|
-------------------------------|-------------------------------|
-------------------------------|-------------------------------|


 
-------11---13-------10---9--||
--14------------11-----------||
-----------------------------||
-----------------------------||
-----------------------------||
-----------------------------||




Castlevania III / NES / Aquarius(Guitar 2)

Tabbed by: ddevil@evilgaming.net

--------------------------------------------------------------------

Also classic.

E||--10----12----13----15----17----15----13----12----|
B||-----10----10----10-------------------------------|
G||-----------------------14----14----14----14----14-|
D||--------------------------------------------------|
A||--------------------------------------------------|
E||--------------------------------------------------|



--------12----13----15----17----15----13----12----|
--15----------------------------------------------|
-----14----14----14----14----14----14----14----14-|
--------------------------------------------------|
--------------------------------------------------|
--------------------------------------------------|



--------12----13----15----17----15----13----12----|
--15----------------------------------------------|
-----14----14----14----14----14----14----14----14-|
--------------------------------------------------|
--------------------------------------------------|
--------------------------------------------------|



--------------------------12--12--13--15--|--13-12---------------10--12--13--|
--15-------13-15----13-15-----------------|---------13-----10----------------|
--------15-------15-----------------------|-------------12-------------------|
-----15-----------------------------------|----------------------------------|
------------------------------------------|----------------------------------|
------------------------------------------|----------------------------------|



--13-12------15-17------------12--|--13-12--10---10-8--6---6--10--|
---------13---------------13------|-------------------------------|
----------------------14----------|-------------------------------|
----------------------------------|-------------------------------|
----------------------------------|-------------------------------|
----------------------------------|-------------------------------|



--17---15-----------------9-9-12-12-|--13-12---------------10--12--13--|
--------------------11-11-----------|---------13-----10----------------|
--------------12-12-----------------|-------------12-------------------|
------------------------------------|----------------------------------|
------------------------------------|----------------------------------|
------------------------------------|----------------------------------|



--13-12------15-17------------12--|--13-12--10---10-8--6---6--10--|
---------13---------------13------|-------------------------------|
----------------------14----------|-------------------------------|
----------------------------------|-------------------------------|
----------------------------------|-------------------------------|
----------------------------------|-------------------------------|



--17---15-----------------9-9-12-12-|--13-12--13--12--13---12--15--13--|
--------------------11-11-----------|----------------------------------|
--------------12-12-----------------|----------------------------------|
------------------------------------|----------------------------------|
------------------------------------|----------------------------------|
------------------------------------|----------------------------------|



--13-12--13--12--13---12--18--17--|--17-----15-13-15-17------15-13-|
----------------------------------|--------------------------------|
----------------------------------|--------------------------------|
----------------------------------|--------------------------------|
----------------------------------|--------------------------------|
----------------------------------|--------------------------------|



--17---15---17--15---13---12--|--13-12--13--12--13---12--15--13--|
------------------------------|----------------------------------|
------------------------------|----------------------------------|
------------------------------|----------------------------------|
------------------------------|----------------------------------|
------------------------------|----------------------------------|



--13-12--13--12--13---12--18--17--|--17-----15-13-15-17------15-13-|
----------------------------------|--------------------------------|
----------------------------------|--------------------------------|
----------------------------------|--------------------------------|
----------------------------------|--------------------------------|
----------------------------------|--------------------------------|



--17---15---17--15---13---12--||
------------------------------||
------------------------------||
------------------------------||
------------------------------||
------------------------------||




VGJam Tabs Castlevania III: Dracula's Curse - "Aquarius"
Tabs database last modified Tuesday, 01-Nov-2016 19:14:53 UTC.
Copyright © 1999 - 2016 VideoGameJam.com. All rights reserved.