VGJam Tabs Castlevania III: Dracula's Curse
Castlevania III: Dracula's Curse
"Aquarius" - Bass tab
Platform(s):Nintendo Entertainment System
Tabbed by:ddevil
Last modified:2002-12-15
Print it:Original file (.TXT)
Hear it:MIDI file
Castlevania III / NES / Aquarius(Bass)

Tabbed by: ddevil@evilgaming.net

-----------------------------------------------------------------------------------------

So very classic.

F||----------------0-7-6------|----------------0-7-6------|----------------0--------|
C||--2---------0-2------------|------------0-2--------0---|-------------2----2------|
G||--------2-4------------7---|--5-----2-4----------------|--4------0-4---------4---|
D||---------------------------|---------------------------|-------------------------|



---------0-5----2-7-----7-8-|-----9-9----9-----9-9----9--|-----7-7----7-----7-7----7--|
-------------0--------8-----|----------------------------|--0------0-----0------0-----|
--3-----------------6-------|--7------7-----7------7-----|----------------------------|
----------------------------|----------------------------|----------------------------|



-----------------------------|-----5-5----5-5----4-4--4-----|-----9-9----9-----9-9----9--|
-----7-7----7-7----7-7-------|--------------------------2-4-|--2-------------------------|
--0------0------0------0--2--|--3------3------2-------------|---------7-----7------7-----|
-----------------------------|------------------------------|----------------------------|



-----7-7----7-----7-7----7--|-----------------------------|-----5-5----5-5----4-4--4-----|
--0------0-----0------0-----|-----7-7----7-7----7-7-------|--------------------------2-4-|
----------------------------|--0------0------0------0--2--|--3------3------2-------------|
----------------------------|-----------------------------|------------------------------|



----------------------3-----|----------------------2-0---|--0--0--0--0--------------|
----------------------------|--------------------------4-|--------------------0--2--|
--1--1--1--1--1--1--1---1-1-|--0--0--0--0--0--0--0-------|--------------3--3--------|
----------------------------|----------------------------|--------------------------|



-----10----10---10-----0-----------|----------------------3-----|
--3----------------9-7---4-2-1-----|----------------------------|
--------8-----8----------------4-2-|--1--1--1--1--1--1--1---1-1-|
-----------------------------------|----------------------------|



----------------------2-0---|--0--0--0--0--------------|
--------------------------4-|--------------------0--2--|
--0--0--0--0--0--0--0-------|--------------3--3--------|
----------------------------|--------------------------|



-----10----10---10-----0-----------||
--3----------------9-7---4-2-1-----||
--------8-----8----------------4-2-||
-----------------------------------||

VGJam Tabs Castlevania III: Dracula's Curse - "Aquarius"
Tabs database last modified Tuesday, 01-Nov-2016 19:14:53 UTC.
Copyright © 1999 - 2016 VideoGameJam.com. All rights reserved.