VGJam Tabs Halo: Combat Evolved
Halo: Combat Evolved
"Halo theme" - Guitar tab
Platform(s):Xbox
Composed by:Martin O'Donnell, Michael Salvatori
Soundtrack:Halo Original Soundtrack [SE-2000-2] (track 26)
Tabbed by:EhX
Last modified:2003-01-25
Print it:Original file (.TXT)
Halo Theme Song
Console: XBox

Tabbed by: EhX
EhX7@hotmail.com

Ahh...alot goin on here...I hope this makes sense

Voices
----------------------------------|
----------------------------------|
----------------2~~---------------|
-2~~---4--5--4-------5--4~-----2--|
----------------------------------|
----------------------------------|

-----------------------------|
-----------------------------|
-4~---6--7~~--6-------6---4~-|
-----------------7~~---------|
-----------------------------|
-----------------------------|

-------------------------------|
-------------------------------|
--------------------2----------|
-----------2~~---5------5p4~~~-|
-2~~---5-----------------------|
-------------------------------|

--------------------------------|
--------------------------------|
--------------------------------|
-2~---5--4~---2---4~------2~~---|
----------------------5~--------|
--------------------------------|

Drums start to come in... then some stringed instruments join

Stringed thing (Rythem)
---------------------------|
---------------------------|
---------------------------|
---------------------------|
---------7~~-----------9~~-|
-0-0-0---------0-0-0-------|

-------------------------------------------|
-------------------------------------------|
-------------------------------------------|
-------------------------------------------|
--------10~~---------12~---------12--10--9-|
-0-0-0--------0-0-0-------0-0-0------------|


Violin Lead Thing (While Violin 1 is playing)
----------------------|
-----------------10~~-|
-9~~--9--11--12-------|
----------------------|
----------------------|
----------------------|

----------------9~~---10~~--|
-12~~-----------------------|
-------11--12~--------------|
----------------------------|
----------------------------|
----------------------------|

-12--14--15~~--17~~--19~~--|
---------------------------|
---------------------------|
---------------------------|
---------------------------|
---------------------------|

Violins behind Lady singing

There are Two Violins playing behind the voice...almost identical to the
 
rythem

V.1 (with v.2)
----------------------------------------------------------------|
----------------------------------------------------------------|
----------------------------------------------------------------|
----------------------------------------------------------------|
--------7--7---------9--9---------12--12---------12--10--9------|
-0-0-0--------0-0-0--------0-0-0----------0-0-0-----------------|

V.2 (with v.1)
-------------------------------------------------------------|
-------------------------------------------------------------|
-------------------------------------------------------------|
-------------------------------------------------------------|
-------------------------------------------------------------|
-----7--7--7------9--9--9------8---8--8-------10--10--9--7---|


Lead (with Rythem)

There are multiple violins/stringed instrument thingys here... But what 
i 
tabbed
is what stands out most in the lead

-7~~--0--7--9--10~~---0--7--10--9--7-----------|
--------------------------------------10--7~~--|-
-----------------------------------------------|
-----------------------------------------------|
-----------------------------------------------|
-----------------------------------------------|

-----0--7--9--7------0-|
-10--------------10----|
-----------------------|
-----------------------|
-----------------------|
-----------------------|

-7~~--0--9-10--12~~---|
----------------------|
----------------------|
----------------------|
----------------------|
----------------------|

-----------10--9--10--9--7--12--10--9-----|
-7--8--10------------------------------12-|
------------------------------------------|
------------------------------------------|
------------------------------------------|
------------------------------------------|

-10--12--14--10-------17~~---17---17~~-|
-----------------12--------------------|
---------------------------------------|
---------------------------------------|
---------------------------------------|
---------------------------------------|

-17--17----------14--15--17------|
---------15--17--------------15--|
---------------------------------|
---------------------------------|
---------------------------------|
---------------------------------|

Part with 2 violin things
---------------14~~------14--15-14------14------------------|
-17~~--15--17---------17------------17------17--15--14------|
--------------------------------------------------------16--|
------------------------------------------------------------|
------------------------------------------------------------|
------------------------------------------------------------|

-19~~-------14--15~~--|
--------17------------|
----------------------|
----------------------|
----------------------|
----------------------|

-----15--14--------------------------------------------|
-17----------17--15--17--15--14--15--14-----14---------|
-----------------------------------------16----16---14-|
-------------------------------------------------------|
-------------------------------------------------------|
-------------------------------------------------------|

Part After Drum-Fill
---------------------------------------------------------------------------------------|
---------20------18------20-------18--------20--------18-------20---------18--------20-|
-----19------17------17-------17--------17-------17-------17---------17--------17------|
-17------------------------------------------------------------------------------------|
---------------------------------------------------------------------------------------|
---------------------------------------------------------------------------------------|

--17--18--20--18--17---|
-----------------------|
-----------------------|
-----------------------|
-----------------------|
-----------------------|

---------17----------------17----------------17----------------17------------------17-|
-20--17--------17--20--17--------17--20--17--------17--20--17----------17--20--17-----|
--------------------------------------------------------------------------------------|
--------------------------------------------------------------------------------------|
--------------------------------------------------------------------------------------|
--------------------------------------------------------------------------------------|

---------------------------|
--20--21--20--17------(17)-|
------------------20-------|
---------------------------|
---------------------------|
---------------------------|

Repeat "V.1 and V.2"

------------14------15--14--12------|
-12~~---12------12---------------15-|
------------------------------------|
------------------------------------|
------------------------------------|
------------------------------------|

-----12------14------15--------19~~-----15--14--12------|
-12------12------12-------12------------------------15--|
--------------------------------------------------------|
--------------------------------------------------------|
--------------------------------------------------------|
--------------------------------------------------------|

----------14------15--14--12------|
-12---12------12---------------15-|
----------------------------------|
----------------------------------|
----------------------------------|
----------------------------------|

-----12------14------15--------19~~-----15--14--12------|
-12------12------12-------12------------------------15--|
--------------------------------------------------------|
--------------------------------------------------------|
--------------------------------------------------------|
--------------------------------------------------------|

Repeat Part After Drum - Fill

Have fun... I hope this all makes sense!! Feel free to make corrections

VGJam Tabs Halo: Combat Evolved - "Halo theme"
Tabs database last modified Thursday, 17-Apr-2014 20:21:29 CDT.
Copyright © 1999 - 2014 VideoGameJam.com. All rights reserved.