VGJam Tabs Chip 'n Dale Rescue Rangers
Chip 'n Dale Rescue Rangers
"Zone J" - Guitar tab
Platform(s):Nintendo Entertainment System
Tabbed by:Vincent Bouchard
Last modified:2007-04-17
Print it:Original file (.TXT)
Hear it:MIDI file
                                     ZONE J
                          Chip 'N Dale's Rescue Rangers

Transcribed by Vincent Bouchard

Gtr I (E A D G B E) - 'Lead'

  Q=200
 4/4
  Gtr I
   E  E  E  q   E  E  E   E  E  E  q   E  E  E
|-----------------------|----------------------|
|-----------------------|----------------------|
|-------17-18--17-15-17-|---15----15-----------|
|-15-18-----------------|------18-----18-17-18-|
|-----------------------|----------------------|
|-----------------------|----------------------|


   E  E  E  q   E  E  E   E  E  E  q   E  E  E
|-----------------------|-----------------------|
|-----------------------|-------------16-14-13--|
|-------17-18--17-15-17-|---15----15------------|
|-15-18-----------------|------18---------------|
|-----------------------|-----------------------|
|-----------------------|-----------------------|


   +H      E  E  E  E   E  q   Q   E  E  E    +W           H    E  E  E  E
|---------------------|--------------------|-------------|------------------|
|-(13)----13----------|--------------------|-------------|--------16-14-13--|
|------------15-13-15-|---15--15--13-12----|-------------|------------------|
|---------------------|-----------------15-|-(15)--------|------------------|
|---------------------|--------------------|-------------|------------------|
|---------------------|--------------------|-------------|------------------|


   +H      E  E  E  E    +E   E  E  E  Q   E  E    +W           W
|---------------------|-------------------------|-------------|------|
|-(13)----13----------|---------13--------------|-------------|------|
|------------15-13-15-|-(15)-15----15-13--12----|-------------|------|
|---------------------|----------------------15-|-(15)--------|------|
|---------------------|-------------------------|-------------|------|
|---------------------|-------------------------|-------------|------|


   Q.    Q.    Q     E  E  E  q   E  Q
|-----------------|---------------------|
|-----------------|-------13------------|
|-13----12--------|-15-15----15--13-12--|
|-------------15--|---------------------|
|-----------------|---------------------|
|-----------------|---------------------|


   Q   Q   Q   E  E    +E   E  E  Q   E  Q
|-------------------|------------------------|
|-------------------|------------------------|
|-12----------15-13-|-(13)-13-12-------------|
|-----15--13--------|------------15--15-13---|
|-------------------|------------------------|
|-------------------|------------------------|


   Q.    Q.    Q     E  E  E  q   E  E  E
|-----------------|-----------------------|
|-----------------|-------13--------------|
|-13----12--------|-15-15----15--13-12-15-|
|-------------15--|-----------------------|
|-----------------|-----------------------|
|-----------------|-----------------------|


   q   q   q   E  E    +E   +H      +Q    E
|-------------15-13-|-(13)-(13)----(13)\-----|
|-14--14--16--------|------------------------|
|-------------------|------------------------|
|-------------------|------------------------|
|-------------------|------------------------|
|-------------------|------------------------|


   E  E  E  q   E  E  E    E  E  E  q   E  E  E
|-----------------------|-----------------------|
|-----------------13----|-----------------------|
|----------15--15----15-|-12-------13--13-15-13-|
|-15-13-11--------------|----15-13--------------|
|-----------------------|-----------------------|
|-----------------------|-----------------------|


   E  E  E  Q   E  Q     E  E  E  Q   E  E  E
|---------------------|------------------------|
|---------------------|----------13--13--------|
|-----------------12--|----12-13--------15-13--|
|-11-13-15-13--15-----|-15---------------------|
|---------------------|------------------------|
|---------------------|------------------------|


   E  E  E  q   E  E  E    E  E  E  q   E  E  E
|-----------------------|-----------------------|
|-----------------13----|-----------------------|
|----------15--15----15-|-12-------13--13-15-13-|
|-15-13-11--------------|----15-13--------------|
|-----------------------|-----------------------|
|-----------------------|-----------------------|


   E  E  E  Q   E  E  E    q   E  E  +H
|-----------------------|-------------------*|
|-----------------------|-------------------*|
|-----------------12-15-|-13--12------------*|
|-11-13-15-13--15-------|--------15-(15)----*|
|-----------------------|-------------------*|
|-----------------------|-------------------*|


Duration Legend
---------------
W - whole; H - half; Q - quarter; E - 8th; S - 16th; T - 32nd; X - 64th; a - acciaccatura
+ - note tied to previous; . - note dotted; .. - note double dotted
Uncapitalized letters represent notes that are staccato (1/2 duration)
Irregular groupings are notated above the duration line
Duration letters will always appear directly above the note/fret number it represents the
duration for.  Duration letters with no fret number below them represent rests.  Multi-
bar rests are notated in the form Wxn, where n is the number of bars to rest for.  Low
melody durations appear below the staff

Tablature Legend
----------------
 h   - hammer-on
 p   - pull-off
 b   - bend
 pb  - pre-bend
 r   - bend release (if no number after the r, then release immediately)
 /\  - slide into or out of (from/to "nowhere")
 s   - legato slide
 S   - shift slide
  - natural harmonic
[n]  - artificial harmonic
n(n) - tapped harmonic
 ~   - vibrato
 tr  - trill
 T   - tap
 TP  - trem. picking
 PM  - palm muting
\n/  - tremolo bar dip; n = amount to dip
 \n  - tremolo bar down
 n/  - tremolo bar up
/n\  - tremolo bar inverted dip
 =   - hold bend; also acts as connecting device for hammers/pulls
 <>  - volume swell (louder/softer)
 x   - on rhythm slash represents muted slash
 o   - on rhythm slash represents single note slash

Misc Legend
-----------
 |  - bar
||  - double bar
||o - repeat start
o|| - repeat end
*|  - double bar (ending)
 :  - bar (freetime)
 $  - Segno
 &  - Coda
Tempo markers -  = BPM(8/16=s8/s16), where s8 = swing 8ths, s16 = swing 16ths


***************************************************************************************
* Generated using Power Tab Editor by Brad Larsen - http://powertab.guitarnetwork.org *
***************************************************************************************

VGJam Tabs Chip 'n Dale Rescue Rangers - "Zone J"
Tabs database last modified Tuesday, 01-Nov-2016 19:14:53 UTC.
Copyright © 1999 - 2016 VideoGameJam.com. All rights reserved.