VGJam Tabs Crystalis
Crystalis
"Intro" - Guitar tab
Platform(s):Nintendo Entertainment System
Tabbed by:Thomas Knight
Last modified:2007-04-22
Print it:Original file (.TXT)
Game: Crystalis
Song: Intro
System: NES
Composer: Yoko O.
Tabbed by Thomas Knight, binarynova@yahoo.com
http://www.usao.edu/~stuknightt

Intro/title music from the NES game: Crystalis.
I'm still having trouble deciding how to handle showing rhythm in tab
form, so get the rhythm from the .NSF (or maybe MIDI) file if you're
having trouble.

Sounds great if you make a habit of sliding into the starting notes
of each 'phrase.'
Hope you enjoy.


Part 1:

e|---------------------------------|-----------------------------------|
B|---------------------------------|------------8---9---8--------------|
G|---8---7---10---8---7---10---8---|---8---10---------------10-8---7---|
D|---------------------------------|-----------------------------------|
A|---------------------------------|-----------------------------------|
E|---------------------------------|-----------------------------------|


e|---------------------------------|-----------------------------------|
B|---------------------------------|-----------------------------------|
G|---10--8---7----8---7---10---8---|---8--------------10-7-------------|
D|---------------------------------|-----------------------------------|
A|---------------------------------|-----------------------------------|
E|---------------------------------|-----------------------------------|


Part 2a:

e|--------8--------------------------------|
B|------------11---10h11p10---8------------|
G|--------------------------------10---8---|
D|---10------------------------------------|
A|-----------------------------------------|
E|-----------------------------------------|

Part 2b:

e|--------6------------------------|
B|------------9----8h9p8---6-------|
G|-----------------------------8---|
D|---8-----------------------------|
A|---------------------------------|
E|---------------------------------|

Part 2c:

e|-------------------6---8-------7-----8---10---|
B|-------6---8p6-9------------------------------|
G|---9------------------------------------------|
D|----------------------------------------------|
A|----------------------------------------------|
E|----------------------------------------------|


Part 3a:

e|-------11------11--10---------8------8----------|
B|---8-------------------11---------------11--8---|
G|------------------------------------------------|
D|------------------------------------------------|
A|------------------------------------------------|
E|------------------------------------------------|


Part 3b:

e|--------------8--10----8----------|
B|---9------11--------------11--8---|
G|----------------------------------|
D|----------------------------------|
A|----------------------------------|
E|----------------------------------|


Part 3c:

e|---11----10h11s13----11h13s15~---|
B|---------------------------------|
G|---------------------------------|
D|---------------------------------|
A|---------------------------------|
E|---------------------------------|


Part 4:

e|----------------------------------------------------------|
B|---11---10----------------8------11----10--10------8s10---|
G|----------------7--8--10-----10---------------------------|
D|----------------------------------------------------------|
A|----------------------------------------------------------|
E|----------------------------------------------------------|

VGJam Tabs Crystalis - "Intro"
Tabs database last modified Tuesday, 01-Nov-2016 19:14:53 UTC.
Copyright © 1999 - 2016 VideoGameJam.com. All rights reserved.