VGJam Tabs Double Dragon
Double Dragon
"Title" - Guitar tab
Platform(s):Nintendo Entertainment System
Tabbed by:Vincent Bouchard
Last modified:2006-10-13
Print it:Original file (.TXT)
Hear it:MIDI file
                                      TITLE
                                  Double Dragon

Transcribed by Vincent Bouchard

Gtr I (E A D G B E) - 'Lead'

  Q=180
  $
 4/4
  Gtr I
   E  E  E E +E  E  Q     E  E  E  E  +E   E  Q
|-------10-------8-12--|-------13---------12-15--|
|----11----8-(8)-------|-11-15----13-(13)--------|
|-10-------------------|-------------------------|
|----------------------|-------------------------|
|----------------------|-------------------------|
|----------------------|-------------------------|


     E  E  E E +E  E  Q     E  E  E  E  +E   E  E  E
||--------10-------8-12--|-------13---------12-15-20--||
||o----11----8-(8)-------|-11-15----13-(13)----------o||
||--10-------------------|----------------------------||
||-----------------------|----------------------------||
||o----------------------|---------------------------o||
||-----------------------|----------------------------||


  |-3-| |-3-| |-3-| |-3-|    |--3--|  |--3--|
  E E E E E E E E E E E E    E  E  E  E  E  E Q   E  E
|-------6-8-6---------6---|-------10-13-10-------------|
|-----6-------------6-----|----10----------10----10-13-|
|---7-----------5-7-----6-|-10-------------------------|
|-8-----------8-----------|----------------------------|
|-------------------------|----------------------------|
|-------------------------|----------------------------|


   4/4
     H     +E   E  E.  S    H     +E   E  E.  S
||--10----(10)-13-12--10-|-12----(12)-15-13--12-|
||o----------------------|----------------------|
||-----------------------|----------------------|
||-----------------------|----------------------|
||o----------------------|----------------------|
||-----------------------|----------------------|


   H     +E   E  E  E    Q   E  E  +Q    E  E
|-13----(13)-17-15-13-|-15-----15-(15)--15-17-|
|---------------------|-----15----------------|
|---------------------|-----------------------|
|---------------------|-----------------------|
|---------------------|-----------------------|
|---------------------|-----------------------|


   H     +E   E  E  E    H     +E   E  E  E
|-18----(18)-13-13-18-|-17----(17)-13-13-17-|
|---------------------|---------------------|
|---------------------|---------------------|
|---------------------|---------------------|
|---------------------|---------------------|
|---------------------|---------------------|


  1.
   W           +H     Q   E  E
|-15--------|-(15)--------------||
|-----------|------------10-13-o||
|-----------|-------------------||
|-----------|-------------------||
|-----------|------------------o||
|-----------|-------------------||


  2.
   H     +E   E  E  E    +W
|-15----(15)-15-18-20-|-(20)----|
|---------------------|---------|
|---------------------|---------|
|---------------------|---------|
|---------------------|---------|
|---------------------|---------|


  E  E  E  E E  E E  E    +E   E  E E E  E  E E
|------10----8-12-8----|------10----8-----------|
|-8-11----10--------11-|-(11)----10---8-11----8-|
|----------------------|-------------------10---|
|----------------------|------------------------|
|----------------------|------------------------|
|----------------------|------------------------|


  E  E  E  E E  E E  E    +E   E  E  E  E  E  E  E
|------10----8-12-8-10-|-(10)-17-13-15-12-13-12----|
|-8-11----10-----------|------------------------13-|
|----------------------|---------------------------|
|----------------------|---------------------------|
|----------------------|---------------------------|
|----------------------|---------------------------|


  E  E  E  E E  E E  E    +E   E E  E  E  E  E  E
|------10----8-12-8-10-|-(10)----8----------10-12-|
|-8-11----10-----------|------11---10-11-11-------|
|----------------------|--------------------------|
|----------------------|--------------------------|
|----------------------|--------------------------|
|----------------------|--------------------------|


   +E   S  S  S  S  S  S  S  S  S  S S  S  S S
|-(12)-15----12-15-13----10-13-12----8-12-10---|
|---------15----------13----------11---------8-|
|----------------------------------------------|
|----------------------------------------------|
|----------------------------------------------|
|----------------------------------------------|


                                            D.S.
  +S   S  S  S  S  S  S  S  S  S  S  S  S  S  S  S
|---------------------------------------------------*|
|-(8)-10-11-10-11-13-11-13-15-13-15-17-15-17-18-20--*|
|---------------------------------------------------*|
|---------------------------------------------------*|
|---------------------------------------------------*|
|---------------------------------------------------*|


Duration Legend
---------------
W - whole; H - half; Q - quarter; E - 8th; S - 16th; T - 32nd; X - 64th; a - acciaccatura
+ - note tied to previous; . - note dotted; .. - note double dotted
Uncapitalized letters represent notes that are staccato (1/2 duration)
Irregular groupings are notated above the duration line
Duration letters will always appear directly above the note/fret number it represents the
duration for.  Duration letters with no fret number below them represent rests.  Multi-
bar rests are notated in the form Wxn, where n is the number of bars to rest for.  Low
melody durations appear below the staff

Tablature Legend
----------------
 h   - hammer-on
 p   - pull-off
 b   - bend
 pb  - pre-bend
 r   - bend release (if no number after the r, then release immediately)
 /\  - slide into or out of (from/to "nowhere")
 s   - legato slide
 S   - shift slide
  - natural harmonic
[n]  - artificial harmonic
n(n) - tapped harmonic
 ~   - vibrato
 tr  - trill
 T   - tap
 TP  - trem. picking
 PM  - palm muting
\n/  - tremolo bar dip; n = amount to dip
 \n  - tremolo bar down
 n/  - tremolo bar up
/n\  - tremolo bar inverted dip
 =   - hold bend; also acts as connecting device for hammers/pulls
 <>  - volume swell (louder/softer)
 x   - on rhythm slash represents muted slash
 o   - on rhythm slash represents single note slash

Misc Legend
-----------
 |  - bar
||  - double bar
||o - repeat start
o|| - repeat end
*|  - double bar (ending)
 :  - bar (freetime)
 $  - Segno
 &  - Coda
Tempo markers -  = BPM(8/16=s8/s16), where s8 = swing 8ths, s16 = swing 16ths


***************************************************************************************
* Generated using Power Tab Editor by Brad Larsen - http://powertab.guitarnetwork.org *
***************************************************************************************

VGJam Tabs Double Dragon - "Title"
Tabs database last modified Tuesday, 01-Nov-2016 19:14:53 UTC.
Copyright © 1999 - 2016 VideoGameJam.com. All rights reserved.