VGJam Tabs Double Dragon II: The Revenge
Double Dragon II: The Revenge
"Level 4" - Guitar tab
Platform(s):Nintendo Entertainment System
Tabbed by:Stuart Tucker
Last modified:2000-08-07
Print it:Original file (.TXT)
Hear it:MIDI file
Title: Level 4 (Guitar)
Source: Double Dragon II (NES)
Composed by: ???
Tabbed by: Stuart Tucker (lordgallard@hotmail.com)

Standard Tuning, low to high, (E,A,D,G,B,e)

This one's a great tune, but it's only 8 bars long. It's actually two
guitars, the second is played exactly one octave higher the the one
is this tab. If you're having trouble figuring out the higher one, 
e-mail me. If anybody's got the MIDI for Level 5 of Contra, it'd be
appreciated. 

e|-------------------------------|--------------------------------|
B|-------------------------------|--------------------------------|
G|-------------------------------|--------------------------------|
D|-------------------------------|----------------------2-0-------|
A|--3-2-3--2------3-2-3--2-3-5-2-|--3-2-3--2------3-2-3-----2-0-2-|
E|-----------5-3-----------------|-----------5-3------------------|


e|-------------------------------|-----------------------------|
B|-------------------------------|-----------------------------|
G|-------------------------------|-----------------------------|
D|-------------------------------|----------------2-0-2--3-2-3-|
A|--3-2-3--2------3-2-3--2-3-5-2-|--3-2-3--5-3-5---------------|
E|-----------5-3-----------------|-----------------------------|

e|-----------------------------|-------------------------------------|
B|-----------------------------|-------------------------------------|
G|-----------------------------|-------------------------------------|
D|--5-3-5--3-0-2--3-2-3--2-----|---------------2--5-5--3-3--2-2--0-0-|
A|-------------------------5-3-|--3-2-3--3-5-5-----------------------|
E|-----------------------------|-------------------------------------|

e|---------------|-----------------|
B|---------------|-----------------|
G|---------------|-----------------|
D|-------2-3-2-0-|-----------------|
A|--3--5---------|--4----6----8----|
E|---------------|-----------------|

Repeat the whole eight bars 3 or 4 times. 
VGJam Tabs Double Dragon II: The Revenge - "Level 4"
Tabs database last modified Tuesday, 01-Nov-2016 19:14:53 UTC.
Copyright © 1999 - 2016 VideoGameJam.com. All rights reserved.