VGJam Tabs Double Dragon II: The Revenge
Double Dragon II: The Revenge
"Level 4" - Bass tab
Platform(s):Nintendo Entertainment System
Tabbed by:Stuart Tucker
Last modified:2000-08-07
Print it:Original file (.TXT)
Hear it:MIDI file
Title: Level 4 (Bassline)
Source: Double Dragon II (NES)
Composer: ???
Tabbbed by: Stuart Tucker (lordgallard@hotmail.com)

Standard Tuning, low to high,(E,A,D,G)

Here's the bassline for the song. It's all just eigtht notes done in octaves,
at 138 BPM. Pretty simple, but groovy. If you have any questions, or comments,
feel free to e-mail me. I'm also looking for the MIDI for level 5 from Contra
and would greatly appreciate it. Later.


G||--2-5-4---|--2-5-4---|--2-5-4---|--5-7-4-5-|-----------|--5-5-----|
D||--------5-|--------5-|--------5-|----------|--3-3--5-5-|------2-2-|
A||--0-3-2---|--0-3-2---|--0-3-2---|--3-5-2-3-|-----------|--3-3-----|
E||--------3-|--------3-|--------3-|----------|--1-1--3-3-|------0-0-|

G|-----------|--2-2-2-2-|--2-5-4---|--2-5-4---|-------5-5-|--5-5------|
D|--3-3--5-5-|----------|--------5-|--------5-|--3-3------|-------2-2-|
A|-----------|--0-0-0-0-|--0-3-2---|--0-3-2---|-----------|--3-3------|
E|--1-1--3-3-|----------|--------3-|--------3-|--1-1--3-3-|-------0-0-|

G|-----------|--2-2-2-2-|--2-5-4---|--2-5-4---|--2-5-4---|--5-7-9-5-|
D|--3-3--5-5-|----------|--------5-|--------5-|--------5-|----------|
A|-----------|--0-0-0-0-|--0-3-2---|--0-3-2---|--0-3-2---|--3-5-7-3-|
E|--1-1--3-3-|----------|--------3-|--------3-|--------3-|----------|

G|-----------|--5-5------|-----------|--2-2-2-2-|--2-5-4---|--2-5-4---|
D|--3-3--5-5-|-------2-2-|--3-3--5-5-|----------|--------5-|--------5-|
A|-----------|--3-3------|-----------|--0-0-0-0-|--0-3-2---|--0-3-2---|
E|--1-1--3-3-|-------0-0-|--1-1--3-3-|----------|--------3-|--------3-|

G|--2-5-4---|--5-7-9-5-||
D|--------5-|----------||
A|--0-3-2---|--3-5-7-3-||
E|--------3-|----------||

That's all of it, folks. 
VGJam Tabs Double Dragon II: The Revenge - "Level 4"
Tabs database last modified Tuesday, 01-Nov-2016 19:14:53 UTC.
Copyright © 1999 - 2016 VideoGameJam.com. All rights reserved.