VGJam Tabs Dr. Mario
Dr. Mario
"Title screen" - Guitar tab
Platform(s):Nintendo Entertainment System
Composed by:Hirokazu "Hip" Tanaka
Tabbed by:Deezer
Last modified:2004-02-07
Print it:Original file (.TXT)
#----------------------------------PLEASE NOTE---------------------------------#
#This file is the author's own work and represents their interpretation of the #
#song. You may only use this file for private study, scholarship, or research. #
#------------------------------------------------------------------------------#

Dr. Mario (Nintendo Entertainment System)
"Title screen"

Originally composed by: Hirokazu "Hip" Tanaka
------------------------------------------------------------------------------
Tabbed by: Deezer (deezer@kontek.net)
For http://www.kontek.net/vgjam/
------------------------------------------------------------------------------

Standard tuning - EADGBe

Tabbed one octave lower.


Intro:
======

---------------------------------------------
-14----14----14----------15---15--17-----17--
---------------------------------------------
-11----11----11----------12---12--14-----14--
---------------------------------------------
---------------------------------------------

---------------------------------------------
-14----15----14----------15----15--17----17--
---------------------------------------------
-11----12----11----------12----12--14----14--
---------------------------------------------
---------------------------------------------

---------------------------------------------
-14----14----------------15----15--17----17--
-------------14------------------------------
-11----11----------------12----12--14----14--
-------------12------------------------------
---------------------------------------------

--------------------------------------------
-14----15----14-----------------------------
--------------------------------------------
-11----12----11-----------------------------
-------------------------7------------------
----------------------------10----9----7----


Part A:
=======

-----------------------14---14-----------------
-14---17-----------------------17---15-14------
----------14--------------------------------16-
-----------------------------------------------
-----------------------------------------------
-----------------------------------------------

----------------------------------------------
-14---17--------------------------------------
----------14----------14---14-13---14-16---14-
----------------------------------------------
----------------------------------------------
----------------------------------------------

----------------------------14-----------------
-14---17-----------------------17---15-14------
----------14-----------14-------------------16-
-----------------------------------------------
-----------------------------------------------
-----------------------------------------------

-----------------------------------------------
-----------------------------------------------
-14--------------------------------------------
-----------------------------------------------
-----------------------------------------------
-----------------------------------------------

-----------------------14---14-----------------
-14---17-----------------------17---15-14------
----------14--------------------------------16-
-----------------------------------------------
-----------------------------------------------
-----------------------------------------------

----------------------------------------------
-14---17--------------------------------------
----------14----------14---14-13---14-16---14-
----------------------------------------------
----------------------------------------------
----------------------------------------------

-----------------------------------------------
-14---17---------------------------------------
----------14-----------14---14-13---14-16--13--
-----------------------------------------------
-----------------------------------------------
-----------------------------------------------

-----------------------------------------------
-----------------------------------------------
-14--------------------------------------------
-----------------------------------------------
-----------------------------------------------
-----------------------------------------------


Part B:
=======

----17---14-----------------14-----------------
--------------15---15---17---------------------
-----------------------------------------------
-----------------------------------------------
-----------------------------------------------
-----------------------------------------------

-----------------------------------------------
----14---14---15---17--------------------------
-----------------------------------------------
-----------------------------------------------
-----------------------------------------------
-----------------------------------------------

----17---14-----------------14-----------------
--------------15---15---17---------------------
-----------------------------------------------
-----------------------------------------------
-----------------------------------------------
-----------------------------------------------

-----------------------------------------------
-17--17--17--17--17--17--17--------------------
-----------------------------------------------
-----------------------------------------------
-----------------------------------------------
-----------------------------------------------

Part C:
=======

----------17-----------------------------------
-14---17----------------------------14-15---17-
-----------------------16---14-16--------------
-----------------------------------------------
-----------------------------------------------
-----------------------------------------------


-----------------------------------------------
-14---------------------------------14-15---17-
------14---------------16---14-16--------------
-----------14----------------------------------
-----------------------------------------------
-----------------------------------------------

-----------------------------------------------
-14---17---------------------------------------
----------14-----------14---14-13---14-16---13-
-----------------------------------------------
-----------------------------------------------
-----------------------------------------------

-----------------------------------------------
-----------------------------------------------
-14--------------------------------------------
-----------------------------------------------
-----------------------------------------------
-----------------------------------------------

Repeat from Part A.


Last revised: 02/07/2004

VGJam Tabs Dr. Mario - "Title screen"
Tabs database last modified Tuesday, 01-Nov-2016 19:14:53 UTC.
Copyright © 1999 - 2016 VideoGameJam.com. All rights reserved.