VGJam Tabs Dragon Warrior
Dragon Warrior
"Castle" - Guitar tab
Platform(s):Nintendo Entertainment System
Composed by:Koichi Sugiyama
Tabbed by:ragnarok
Last modified:2003-01-24
Print it:Original file (.TXT)
NES - Dragon Warrior
Castle theme

e|----------------------------------------------13-12-13-10-13----13------------0----------|
B|---17-15-17-13-17----17--------------------------------------13----12-------0------------|
G|*-----------------16----14---------2-0------------------------------------1---------1-2--|
D|*--------------------------------2-----3-2-0----------------------------2-------2-4------|
A|-0---------------------------0-3---------------------------------------------------------|
E|-----------------------------------------------------------------------------------------|

e|-15-13-15-12-15----15-13--15--17--15-13-12-----12--10--11--12--------------------|
B|----------------14--------------------------13-----------------------------------|
G|---------------------------------------------------------------------------------|
D|----------------------------------------------------------------------2-0--------|
A|--------------------------------------------------------------------2-----3-2-0--|
E|----------------------------------------------------------------0-4--------------|

e|-17p16h17----------------------17p16h17--------------------------------------------------------------------------|
B|----------17p16h17----------------------17p16h17---------------------------18----------17----------17-------17---|
G|-------------------17p16h17----------------------17p16h17------16----17-------14-17-14----------16-------16------|
D|----------------------------19----------------------------19------17----17-------------------18-------18-------0-|
A|------------------------------------------------------------------------------------------19---------------------|
E|-----------------------------------------------------------------------------------------------------------------|

e|-17p16h17----------------------17p16h17--------------------------------------------------------------------------|
B|----------18p17h18----------------------18p17h18---------------------------18-------18-17------------------------|
G|-------------------19p18h19----------------------19p18h19------16----17-------14-17-------14-13-----------------*|
D|----------------------------19----------------------------19------17----17----------------------15-14-12--------*|
A|---------------------------------------------------------------------------------------------------------15-14---|
E|-----------------------------------------------------------------------------------------------------------------|

VGJam Tabs Dragon Warrior - "Castle"
Tabs database last modified Tuesday, 01-Nov-2016 19:14:53 UTC.
Copyright © 1999 - 2016 VideoGameJam.com. All rights reserved.