VGJam Tabs Halo 2
Halo 2
"In Amber Clad" - Guitar tab
Platform(s):Xbox
Composed by:Martin O'Donnell, Michael Salvatori
Tabbed by:Deezer
Last modified:2004-12-21
Print it:Original file (.TXT)
#----------------------------------PLEASE NOTE---------------------------------#
#This file is the author's own work and represents their interpretation of the #
#song. You may only use this file for private study, scholarship, or research. #
#------------------------------------------------------------------------------#

Halo 2 (Microsoft Xbox)
"In Amber Clad"

Originally composed by: Martin O'Donnell and Michael Salvatori
------------------------------------------------------------------------------
Tabbed by: Deezer (vgjam.staff AT gmail DOT com)
For http://www.kontek.net/vgjam/
------------------------------------------------------------------------------

Symbols used:
 \ = slide down

Standard tuning - EADGBe


Intro:
======
(Palm muted)

--------------------------------------------------------------
--------------------------------------------------------------
--------------------------------------------------------------
--------------------------------------------------------------
-2-4-4-4---2-4-4-4-------2-4------2-4-4-4---2-4-4-4-------2-4-
---------------------4--------------------------------4-------

--------------------------------------------------------------
--------------------------------------------------------------
--------------------------------------------------------------
--------------------------------------------------------------
--------------------------------------------------------------
-0-2-2-2---0-2-2-2---0---0-2------0-2-2-2---0-2-2-2---0---0-2-

-----------------------------------------------------------------
-----------------------------------------------------------------
-----------------------------------------------------------------
-----------------------------------------------------------------
-2-4-4-2-4---2-4---2-4---2---4---2-4-4-2-4---2-4---2-4---2---4---
-----------------------4-------------------------------4---------
                               gradually ease up on pm ^ ^   ^

Middle part:
============

|--------------------------------------------------------------
|--------------------------------------------------------------
|--------------------------------------------------------------
|--------------------------------------------------------------
|-2-4-4-4---2-4-4-4-------2-4------2-4-4-4---2-4-4-4-------2-4-
|---------------------4--------------------------------4-------

 --------------------------------------------------------------|
 --------------------------------------------------------------|
 --------------------------------------------------------------|
 --------------------------------------------------------------|
 --------------------------------------------------------------|
 -0-2-2-2---0-2-2-2---0---0-2------0-2-2-2---0-2-2-2---0---0-2-| repeat

|-------------------------------------------------------------|
|---------2---------------2---------------0-------------0-----|
|-----------------1---1-------1-------1-------------1-------1-|
|---------------------------------2-------------2-------------|
|-4-----------------------------------------------------------|
|-------------------------------------------------------------| repeat
  let ring


Outro:
======
Two guitars playing the same riff:

|---------------------------------------------------------------|
|---------------------------------------------------------------|
|---------------------------------------------------------------|
|---------------------------------------------------------------|
|-2-4-4-2-4---2-4---2-4---2---4---2-4-4-2-4---2-4---2-4---2---4-|
|-----------------------4-------------------------------4-------| repeat

        drums tacit
G1|----------------------------------------------------------------
U |----------------------------------------------------------------
I |----------------------------------------------------------------
T |----------------------------------------------------------------
A |-2-4-4-2-4---2-4---2-4---2---4-\--------------------------------
R |-----------------------4----------------------------------------
  |
G2|----------------------------------------------------
U |----------------------------------------------------
I |----------------------------------------------------
T |----------------------------------------------------
A |-2-4-4-2-4---2-4---2-4---2---4---2-4-4-2-4---2-4----
R |-----------------------4----------------------------


Last modified: 12/21/2004

VGJam Tabs Halo 2 - "In Amber Clad"
Tabs database last modified Thursday, 17-Apr-2014 20:21:29 CDT.
Copyright © 1999 - 2014 VideoGameJam.com. All rights reserved.