VGJam Tabs Dragon Warrior
Dragon Warrior
"Overworld" - Guitar tab
Platform(s):Nintendo Entertainment System
Composed by:Koichi Sugiyama
Tabbed by:Mark Couch
Last modified:2001-05-29
Print it:Original file (.TXT)
Hear it:MIDI file
Nes-Dragon Warrior-"Overworld Theme"
By: Mark Couch
Melody
e|--------5-----3-------------1-0--------------------------------|
B|--3------------------------------3-------------5---3-----------|
G|--------------------------------------5-3--5-2-----------------|
D|---------------------------------------------------------------|
A|---------------------------------------------------------------|
E|---------------------------------------------------------------|
| Great Classical excersize harmony part. :-)
| Dm G D7 Bb Am D
e|--------------------------------------------------------------|
B|----------------0---0-----1---1--------------1---1------------|
G|-----2-----2------0---------2-------3---3------2-----2---2----|
D|--0-----2-----0--------0---------0----3----2-------0---4------|
A|--------------------------------------------------------------|
E|--------------------------------------------------------------|


e|--------------------------------------------------------------------|
B|-(3)-------------------1---0----------------------------------------|
G|-------------------2--------------------------------2---------------|
D|---------------------------------------5-3-2---3-5------------------|
A|--------------------------------------------------------------------|
E|--------------------------------------------------------------------|
| D D7 G Bbadd9 A
e|--------------------------------------------------------------------|
B|----------------1----1---1---0---0---0---0------------2---2---------|
G|----2---2-0-3-2--------2-------0-------0-----3-1-3------2-----------|
D|--0---4------------0-------0-------0-------0--------4---------------|
A|--------------------------------------------------------------------|
E|--------------------------------------------------------------------|

e|--------------------------------------------------------------------|
B|--------------------------------------------------------------------|
G|-(2)----------------------------------------------------------------|
D|--------------------------------------------------------------------|
A|--------------------------------------------------------------------|
E|--------------------------------------------------------------------|
|
e|--------------------------------------------------------------------|
B|--------------------------------------------------------------------|
G|------2---2---2---2-------------------------------------------------|
D|--0-----2-----------------------------------------------------------|
A|------------2---4---------------------------------------------------|
E|--------------------------------------------------------------------|

That's te tune itself. This is a cool part to play with it. (it's
pretty much the harmony part up an octave)

3rd harmony (cool part)
Dm G Am D
e-----------------------------------------------------------------|
B---------------------------------13----13------------------------|
G------14----14------15----15--------14--------14----14-----------|
D--12-----15-----12-----15-----14----------12-----16--------------|
A-----------------------------------------------------------------|
E-----------------------------------------------------------------|

VGJam Tabs Dragon Warrior - "Overworld"
Tabs database last modified Tuesday, 01-Nov-2016 19:14:53 UTC.
Copyright © 1999 - 2016 VideoGameJam.com. All rights reserved.