VGJam Tabs Dragon Warrior 3
Dragon Warrior 3
"Dark World" - Guitar tab
Platform(s):Nintendo Entertainment System
Composed by:Koichi Sugiyama
Tabbed by:Gwenaël Joret
Last modified:2000-01-18
Print it:Original file (.TXT)
Hear it:MIDI file
                      Dragon Warrior 3  [dark world]


Time signature : 6/8


E---------1-5---------3-7-|----------5-8-------------|----------------------2-5-|
B-------3-----------3-----|------1-3-------------6---|------------5-------3-----|
G-----2-----------4-------|----2-------------3-7---7-|----------5-------2-------|
D---3-----------5---------|--0-----------0-3---------|------2-7-----0-4---------|
A-5-----------5-----------|--------------------------|--0-3---------------------|
E-------------------------|--------------------------|--------------------------|

-----------0-2-5-2-------|---------1-5---------3-7-|
---------3---------3-----|-------3-----------3-----|
-----0-3-------------2---|-----2-----------4-------|
---2-------------------4-|---3-----------5---------|
-0-----------------------|-5-----------5-----------|
-------------------------|-------------------------|


---------3-7---------4-6-|-----0-5-9-12-----0-5-10-12-|5-9-12-15-12-15-12-9-5-0-----|
-------3-----------3-----|---2------------3-----------|-------------------------2---|
-----4---------1-3-------|-2------------2-------------|---------------------------2-|
---5---------0-----------|----------------------------|-----------------------------|
-5-----------------------|----------------------------|-----------------------------|
-------------------------|----------------------------|-----------------------------|

tab by Gwenal Joret (mb11363@tvd.be)
any comments, corrections, ... are welcome !
midi from www.vgmusic.com

VGJam Tabs Dragon Warrior 3 - "Dark World"
Tabs database last modified Tuesday, 01-Nov-2016 19:14:53 UTC.
Copyright © 1999 - 2016 VideoGameJam.com. All rights reserved.