VGJam Tabs DuckTales
DuckTales
"Amazon Stage" - Guitar tab
Platform(s):Nintendo Entertainment System
Tabbed by:Lee Robson
Last modified:2007-06-16
Date added:2008-02-24
Print it:Original file (.TXT)
Duck Tales - NES
Amazon Stage

Standard Tuning (E A D G B E)

The hammers and slides in this are quick.

|----------------------|
|----8----8----10---12-|x2
|----9----9----10---12-|
|-10-------------------|
|------10---------10---|
|-----------10---------|


|--------------------------------------|
|------8-9h10-8-9h10-8-----------------|
|----9-----------------9-7--7--8h9-9-7-|
|-10-----------------------------------|
|--------------------------------------|
|--------------------------------------|

|---------------8----------------------|
|------8-9h10-8---10p8-----------------|
|----9-----------------9-7--7--8h9-9-7-|
|-10-----------------------------------|
|--------------------------------------|
|--------------------------------------|

|---------------------------------------|
|--------------4/5----------------4/5---|
|-7-5------5-7-----5------6h7-5-7-----5-|
|---------------------------------------|
|---------------------------------------|
|---------------------------------------|

|-----7--7----8--8----9--9----10\----------11-10p9----|
|-----8--8----8--8----8--8-----8\---8-10p8---------10-|
|---5-------------------------------------------------|
|-7---------------------------------------------------|
|-----------------------------------------------------|
|-----------------------------------------------------|

|-8-8----8-8------8---7-7----7-7------7---|
|-8-8----8-8------8---8-8----8-8------8---|
|-----------------------------------------|
|-----------------------------------------|
|-----------------------------------------|
|-----------------------------------------|

|-6-6----6-6------6---5-5----5-5------5-|
|-8-8----8-8------8---6-6----6-6------6-|
|---------------------------------------|
|---------------------------------------|
|---------------------------------------|
|---------------------------------------|

|-8---8-----8--8--8---8----12-11-10-9--|
|-10--10----10-10-10--10---13-12-11-10-|
|--------------------------------------|
|--------------------------------------|
|--------------------------------------|
|--------------------------------------|

|-----------8-----8-------------8-----------------|
|-8-10p8-10----10----10p8---------10--------------|
|-------------------------9-8-9------9-8---7------|
|----------------------------------------------10-|
|-------------------------------------------------|
|-------------------------------------------------|

Lee Robson LTRobson@gmail.com 16/06/07

VGJam Tabs DuckTales - "Amazon Stage"
Tabs database last modified Tuesday, 01-Nov-2016 19:14:53 UTC.
Copyright © 1999 - 2016 VideoGameJam.com. All rights reserved.