VGJam Tabs Faxanadu
Faxanadu
"Main theme" - Guitar tab
Platform(s):Nintendo Entertainment System
Tabbed by:Mathieu Rainville
Last modified:2000-11-03
Print it:Original file (.TXT)
#----------------------------------PLEASE NOTE---------------------------------#
#This file is the author's own work and represents their interpretation of the #
#song. You may only use this file for private study, scholarship, or research. #
#------------------------------------------------------------------------------#

                         FAXANADU MAIN THEME - LEAD PART

Transcribed by Mathieu Rainville mathieu_rainville@hotmail.com

|-------------------------------0-1-2---7---9---16---14--|
|-------------------------2-3-4--------------------------|
|-------------------1-3-4--------------------------------|
|-----------1-2-3-4--------------------------------------|
|-----1-2-4----------------------------------------------|
|-2-4----------------------------------------------------|


|------------------------------------------16---14-----------------------------|
|-12-14-15-12-15-14--11----------12---14-------------12-14-15-12-15-14--11-----|
|-----------------------11--11---------------------------------------------11--|
|------------------------------------------------------------------------------|
|------------------------------------------------------------------------------|
|------------------------------------------------------------------------------|


|-14---------12-12-11----------------------------------------------11-12-13-14---------|
|-----12-12-----------12----------------------------------11-12-14--------------12-12--|
|-------------------------11-13-14--14-13-14-13-11--11-13------------------------------|
|--------------------------------------------------------------------------------------|
|--------------------------------------------------------------------------------------|
|--------------------------------------------------------------------------------------|


|-12-12-11--------------------------------------------11-12-13-14-15--17--14--------------12--|
|----------12-----------------------------12-11-12-14-------------------------12-14-15-15-----|
|--------------11-13-14--14-13-14-13-11-------------------------------------------------------|
|---------------------------------------------------------------------------------------------|
|---------------------------------------------------------------------------------------------|
|---------------------------------------------------------------------------------------------|


|-------------------------------------------------15---17---14------------------12--------|
|-14--12------------------------------12-------12----------------12-12-14-15-15----14-12--|
|--------14-11--12-11----11--------11-------11--------------------------------------------|
|---------------------14--------12-------12-----------------------------------------------|
|----------------------------14-----------------------------------------------------------|
|-----------------------------------------------------------------------------------------|


|-----------12---------------------------------|
|-----15-15----14--12----12----------------12--|
|-14------------------14-----------------------|
|----------------------------------------------|
|----------------------------------------------|
|----------------------------------------------|



******************************************************************************************
* This file was generated with Power Tab Editor - Get it at http://home.tct.net/~blarsen *
******************************************************************************************
VGJam Tabs Faxanadu - "Main theme"
Tabs database last modified Tuesday, 01-Nov-2016 19:14:53 UTC.
Copyright © 1999 - 2016 VideoGameJam.com. All rights reserved.