VGJam Tabs Final Fantasy
Final Fantasy
"Prelude" - Guitar tab
Platform(s):Nintendo Entertainment System
Composed by:Nobuo Uematsu
Soundtrack:All Sounds of Final Fantasy I & II [PSCR-5251] (track 02)
Tabbed by:Quasi-Reality
Last modified:2003-02-06
Print it:Original file (.TXT)
Hear it:MIDI file
Name: Prelude
Game: Final Fantasy
Soundtrack: All Sounds of Final Fantasy I & II
Track: 2
Composer: Nobuo Uematsu
Style Note: Delicato (Delicately)
Tempo: Quarter Note ~ 100 

Transcribed from the official DOREMI piano score to guitar tab 
by Quasi-Reality (quasireality@yahoo.com)


e|------------------------|18---------------------|
B|---------------------18-|---18------------------|
G|------------15-17-19----|------19-17-15---------|
D|------12-15-------------|---------------15------|
A|13-15-------------------|------------------17-15|
E|------------------------|-----------------------|


e|------------------------|15---------------------|
B|---------------------15-|---15------------------|
G|------------12-14-15----|------15-14-12---------|
D|---------12-------------|---------------12------|
A|---12-13----------------|------------------13-12|
E|15----------------------|-----------------------|
                                             repeat

e|---------------------13-|15-13------------------|
B|------------------16----|------16---------------|
G|---------------15-------|---------15------------|
D|------13-15-17----------|------------17-15-13---|
A|---13-------------------|---------------------13|
E|15----------------------|-----------------------|


e|---------------------15-|17-15------------------|
B|------------------18----|------18---------------|
G|---------------17-------|---------17------------|
D|------15-17-19----------|------------19-17-15---|
A|12-15-------------------|---------------------15|
E|------------------------|-----------------------|


e|---------------------13-|14-13------------------|
B|------------------14----|------14---------------|
G|---------------15-------|---------15------------|
D|---------15-16----------|------------16-15------|
A|---13-16----------------|------------------16-13|
E|14----------------------|-----------------------|


e|---------------------15-|16-15------------------|
B|---------------13-16----|------16-13------------|
G|---------12-13----------|------------13-12------|
D|---10-13----------------|------------------13---|
A|11----------------------|---------------------15|
E|------------------------|-----------------------|


Every note is an eighth note, so the rhythm is easy to figure out.

VGJam Tabs Final Fantasy - "Prelude"
Tabs database last modified Tuesday, 01-Nov-2016 19:14:53 UTC.
Copyright © 1999 - 2016 VideoGameJam.com. All rights reserved.