VGJam Tabs Final Fantasy
Final Fantasy
"Ahead on Our Way (opening theme)" - Guitar tab
Platform(s):Nintendo Entertainment System
Composed by:Nobuo Uematsu
Soundtrack:All Sounds of Final Fantasy I & II [PSCR-5251] (track 03)
Tabbed by:Quasi-Reality
Last modified:2003-01-20
Print it:Original file (.TXT)
Hear it:MIDI file
Name: Opening Theme
Game: Final Fantasy
Soundtrack: All Sounds of Final Fantasy I & II
Track: 3
Composer: Nobuo Uematsu
Style Note: Tranquillo (Calmly)
Tempo: Half Note ~ 75

Transcribed from the official DOREMI piano score to guitar tab 
by Quasi-Reality (quasireality@yahoo.com)


e|----------------|--------------|-----------------|-----------|
B|----------------|11----10--.---|-----------------|-----------|
G|.---10--12--.---|----------12--|10--9-10-12--10--|10----9----|
D|10--.-------10--|.-------------|-----------------|-----------|

e|----------------|--------------|-----------------|------------|
B|----------------|13----11--10--|.------10-.------|10----.-----|
G|----12--14--.---|--------------|12--11-.--12--.--|------12----|
D|12--.-------12--|.-------------|--------------12-|.-----------|
                                                          repeat

e|10------10--|.-----------|------------------|----------------|
B|------------|13------10--|11--11-10-.-------|----10--11--13--|
G|.-----------|------------|----------12--11--|12--.-----------|
D|------------|------------|------------------|----------------|

e|11------11--|10------.---|--------------------|----------------|
B|.-----------|--------11--|13--13-14-13--13-14-|13--11--10--.---|
G|------------|------------|--------------------|------------12--|
D|------------|------------|--------------------|----------------|

The number of dashes after the fret number and before 
another number or . is the length of the note:

- = eighth note
-- = quarter note
---- = half note
------ = dotted half note
. = silence string

VGJam Tabs Final Fantasy - "Ahead on Our Way (opening theme)"
Tabs database last modified Tuesday, 01-Nov-2016 19:14:53 UTC.
Copyright © 1999 - 2016 VideoGameJam.com. All rights reserved.