VGJam Tabs Final Fantasy
Final Fantasy
"Temple of Chaos" - Guitar tab
Platform(s):Nintendo Entertainment System
Composed by:Nobuo Uematsu
Soundtrack:All Sounds of Final Fantasy I & II [PSCR-5251] (track 06)
Tabbed by:Daniel Lee Hill
Last modified:1999-09-18
Print it:Original file (.TXT)
Hear it:MIDI file
Temple of Fiends
Final Fantasy I
Composed by: Nobuo Uematsu
Tabbed by: Daniel Lee Hill aka Id
E-mail: hill.family@ns.sympatico.ca


Made in MS Notepad at:
800x600 resolution (maximzied)


There could be some errors so e-mail me
ASAP if you see any!


**This tab contains both the "main" and "bass" intruments**


MAIN INSTRUMENT


E---------------------
B---------------------
G-------4-------------
D---2-----7-5-4-2-5-2-
A-----2---------------
E---------------------


E-------------------
B-------------------
G---------7-5-4-2-4-
D--2---4------------
A----2--------------
E-------------------


E--------------------------
B--------------------------
G--0-2-4-------------------
D----------5-4-2-4-5-2-----
A--------5-------------2-5-
E--------------------------


E-----------------------
B-----------------------
G--------4-2------------
D------2-----3--5-7-5-4-
A--2-3------------------
E-----------------------


BASS INTRUMENT


B-------------------
G-------------------
D-------------------
A--7---5---3---3--5-
E-------------------


B----------------
G----------------
D----------------
A--7---5---4---3-
E----------------


B-----------------------------------------------------------------------------------------------
G-----------------------------------------------------------------------------------------------
D----5--5---5---5---7--7---7--7----9---9---9--9---9--9---9--9---10--10---10--10-----10--10---10-
A-----------------5------5------7--------7----------------------------------------8--------8----
E--3------3-------------------------------------7------7------8--------8------------------------


B----------------------7-5---7-5-7-
G--------7-5---7-5-7---------------
D--10----------------7-----7-------
A-----5------5---------------------
E----------------------------------


VGJam Tabs Final Fantasy - "Temple of Chaos"
Tabs database last modified Tuesday, 01-Nov-2016 19:14:53 UTC.
Copyright © 1999 - 2016 VideoGameJam.com. All rights reserved.