VGJam Tabs Final Fantasy
Final Fantasy
"Matoya's Cavern" - Guitar tab
Platform(s):Nintendo Entertainment System
Composed by:Nobuo Uematsu
Soundtrack:All Sounds of Final Fantasy I & II [PSCR-5251] (track 07)
Tabbed by:Quasi-Reality
Last modified:2003-01-25
Print it:Original file (.TXT)
Hear it:MIDI file
Name: Matoya's Theme
Game: Final Fantasy 
Soundtrack: All Sounds of Final Fantasy I & II
Track: 7
Composer: Nobuo Uematsu
Style Note: Espressivo (Expressive)
Tempo: Quarter Note ~ 150

Transcribed from the official DOREMI piano score to guitar tab
by Quasi-Reality (quasireality@yahoo.com)

This is actually one octave lower than the piano score, since
otherwise it would require 24 frets on the guitar (most guitars
have only 21 or 22 frets).

e|---------------|------------|---------7--.----|--------------|
B|----7-.-8--7-.-|------------|--7-10-.----10-8-|7--8-7-.--7-8-|
G|--7-.--------9-|7--9-7-6----|7-.----7-.-------|-------9--.---|
D|9-.---9-.------|------------|-----------------|--------------|

e|-------------|----------------|7----.-----|-----------------|
B|10----.------|-----------8-10-|--------8--|7^8^7^.----10-12-|
G|----------9--|7^6^7^.---------|-----7--.--|------9----.-----|
D|------11--.--|------9----.----|-----------|-----------------|

e|9-----.-----9-|12*10*9*10*7---.------|-------------|-----------|
B|------10-12-.-|---------------10-8-7-|.------------|-----------|
G|--------------|----------------------|9-----.--7-9-|7----6--.--|
D|--------------|----------------------|------10-.---|--------7--|

e|---------|--------------|---------|--------------|
B|---------|--------------|---------|------7*.-----|
G|7--------|------7*6*.-6*|7--------|------.-9*7*9*|
D|.--------|----------9*.-|---------|--------------|

e|---------|---------------|----------|--------------------|
B|7--------|------10*8*7*8*|10--------|----7*.-------------|
G|.--------|---------------|----------|------9*7*6*9*7*6*.-|
D|---------|---------------|----------|------------------8*|


The number of dashes/symbols after the fret number 
and before another number or . is the length of the note:

* = sixteenth note
^ = eighth note triplet
- = eighth note
-- = quarter note
---- = half note
------ = dotted half note
-------- = whole note
. = silence string

VGJam Tabs Final Fantasy - "Matoya's Cavern"
Tabs database last modified Tuesday, 01-Nov-2016 19:14:53 UTC.
Copyright © 1999 - 2016 VideoGameJam.com. All rights reserved.