VGJam Tabs Final Fantasy
Final Fantasy
"City Theme" - Guitar tab
Platform(s):Nintendo Entertainment System
Composed by:Nobuo Uematsu
Soundtrack:All Sounds of Final Fantasy I & II [PSCR-5251] (track 08)
Tabbed by:Quasi-Reality
Last modified:2003-01-20
Print it:Original file (.TXT)
Hear it:MIDI file
Name: City Theme
Game: Final Fantasy
Soundtrack: All Sounds of Final Fantasy I & II
Track: 8
Composer: Nobuo Uematsu
Style Note: Con affetto (with affection)
Tempo: Quarter Note ~ 90

Transcribed from the official DOREMI piano score to guitar tab
by Quasi-Reality (quasireality@yahoo.com)


e|----15--.---------|--------------|17----15-.--------|
B|17--.---15--17-18-|17-15-.-------|---------15-17-18-|
G|------------------|------17------|.-----------------|

e|-----------|20----20--19-17-|15-.----------------|
B|17------.--|17----19--.-----|---15-17-18-17--.---|
G|-----------|----------------|----------------17--|

e|----------------|----------------|
B|15-----.-----15-|.------------15-|
G|.------15-17-.--|17----16--17-.--|


The number of dashes after the fret number and before another number or .
is the length of the note:
- = eighth note
-- = quarter note
---- = half note
------ = dotted half note
. = silence string

VGJam Tabs Final Fantasy - "City Theme"
Tabs database last modified Tuesday, 01-Nov-2016 19:14:53 UTC.
Copyright © 1999 - 2016 VideoGameJam.com. All rights reserved.