VGJam Tabs Sonic CD
Sonic CD
"Sonic Boom (Closing Theme)" - Guitar, Bass tab
Platform(s):Sega CD
Tabbed by:Chris Laviolette
Last modified:2003-05-13
Print it:Original file (.TXT)
Hear it:MIDI file
"Sonic Boom"
Composed by Spencer Nilsen (vocals by Pastiche)
Sonic CD for Sega CD

Tablature by Chris Laviolette (octal_livershite@hotmail.com)

Tempo: about 110 bpm
Tuning: standard (EADGBe)

p - pull-off
h - hammer-on
/ - slide up
\ - slide down
~ - vibrato

----------

Song Order:

Bassline x1, Opening
Verse x5 (endings 1,2,1,2,1)
Chorus x4 (low solo x2)
Verse x3 (endings 2,1,1)
Chorus x4 (low solo, high solo)
Verse x2 (endings 2,1) + solo
Chorus x2 (fade out)

----------

Acoustic Melody - Notes in tab are spaced accurately

Opening:
e|--------0--------|
B|----3-------3p0--|
G|-----------------|
D|-----------------|
A|-----------------|
E|-----------------|

Verse:
   Em(sus4)                        G                               Asus2
e|-------------------------0-------------------------------0---------------------0---------|
B|-0---------0---3-------------0-------------0---3-------------0---------0---3-----------0-|
G|-------2---------------0-------------0h2-------2---0---2-------------2-------------2-----|
D|-----2-------------2---------------------------------------------------------------------|
A|----------------------------------------------------------------(0)----------------------|
E|(0)-----------------------------(3)------------------------------------------------------|
                                   ^use middle finger

* Notes in brackets are bass notes,
  not played in the song but good for solo performances.

Ending 1:                                     Ending 2:
e|-3-------2-----5-------3---------2---0-|    e|-----3---2---------0-------------0-----|
B|-----0-------0-----0-------0---0-------|    B|-------------0-0-------0---0---3-----3-|
G|---------------------------------------|    G|---------------------------------------|
D|---------------------------------------|    D|---------------------------------------|
A|---------------------------------------|    A|---------------------------------------|
E|---------------------------------------|    E|---------------------------------------|


Chorus: (bar the top 3 strings on fret 1)
e|-1-------------1-----------------1-------------1----------------|
B|-------1---4-------------1---4---------1---4-------------1---4--|
G|-----3-------------1---3-------------3-------------1---3--------|
D|----------------------------------------------------------------|
A|----------------------------------------------------------------|
E|----------------------------------------------------------------|

e|-4---------4---3-------------1-----------------------------1----|
B|-------1---------------1-4-------4-----1---3-------------1-----4|
G|-----3-------------3-----------------3-------------1---3--------|
D|----------------------------------------------------------------|
A|----------------------------------------------------------------|
E|----------------------------------------------------------------|

----------

Electric Guitar Solos

Chorus (low):
e|----------------------------------------------------------------|
B|-/6----------6-8-9----------/9---8-------\-/8-------------------|
G|-----------------------------------------------8----------------|
D|-------------------------------------------------8----------\---|
A|----------------------------------------------------------------|
E|----------------------------------------------------------------|

e|----------------------------/8---6-------\-/11--10~-~-~-~-~-\---|
B|-/6----------6-8-9-------\--------------------------------------|
G|----------------------------------------------------------------|
D|----------------------------------------------------------------|
A|----------------------------------------------------------------|
E|----------------------------------------------------------------|

Chorus (high):
e|-/13-------13-15-16------\--/16--15--------15-------------------|
B|----------------------------------------------16----------------|
G|-------------------------------------------------15---------\---|
D|----------------------------------------------------------------|
A|----------------------------------------------------------------|
E|----------------------------------------------------------------|

e|-/13-------13-15-16------\--/20--18----~-~-16-18-20-~--~--~~~~\-|
B|----------------------------------------------------------------|
G|----------------------------------------------------------------|
D|----------------------------------------------------------------|
A|----------------------------------------------------------------|
E|----------------------------------------------------------------|

Third Verse:
e|----------------------------------------------------------------|
B|-------/-5---3-~-~-~-\----3--2-~-~-~-~-~------------------------|
G|----------------------/4-----------------4--6-4-2---------------|
D|------------------------------------------------------5---4---5-|
A|----------------------------------------------------------------|
E|----------------------------------------------------------------|

e|-----------------------------------------------7--~--~--~~~~~\--|
B|----------------------------------------------------------------|
G|-/4---------/4--~--~--~-2----2-~-~-~-~-~-\----------------------|
D|---------------------------5------------------------------------|
A|----------------------------------------------------------------|
E|----------------------------------------------------------------|

----------

Chorus Background Chords:

   Fm     Dbsus2  Ebsus2   Bbsus2
e|-1-------4-------6-------1------|
B|-1-------4-------6-------1------|
G|-1-------6-------8-------3------|
D|-3-------6-------8-------3------|
A|-3-------4-------6-------1------|
E|-1-------4-------6-------1------|

"Sonic Boom"
Composed by Spencer Nilsen (vocals by Pastiche)
Sonic CD for Sega CD

Bass Tablature by Chris Laviolette (octal_livershite@hotmail.com)

Tempo: about 110 bpm
Tuning: standard (EADG)

----------

Song Order:

Verse x6 (endings 1,2,1,2,1,2)
Chorus
Verse x3 (endings 1,2,2)
Chorus
Verse x2 (endings 1,2)
Chorus (fade out)

----------

Verse:

G|--------------------------------------------------------------|
D|-------------2---------------5---------------7----------------|
A|--------------------------------------------------------------|
E|-0--0--0---------3--3--3---------5--5--5--------3-5--5--5-----|

Ending 1:       Ending 2:
G|---------|    G|---------|
D|---------|    D|---------|
A|---------|    A|---------|
E|-5-5-3-0-|    E|-5-7-----|

----------

Chorus:

G|-------------------------------------------------------------------|
D|-------------------------------------------------------------------|
A|-----------------4--4--4---------6--6--6---------1--1--1-----1-1-3-|
E|-1--1--1-----------------------------------------------------------|

G|-------------------------------------------------------------------|
D|-------------------------------------------------------------------|
A|-----------------4--4--4---------1--1--1---------1--1--1-----------|
E|-1--1--1-----------------------------------------------------------|

G|-------------------------------------------------------------------|
D|-------------------------------------------------------------------|
A|-----------------4--4--4---------6--6--6---------1--1--1-----1-1-3-|
E|-1--1--1-----------------------------------------------------------|

G|-------------------------------------------------------------------|
D|-----------------------------------------------1-------------------|
A|-----------------4--4--4---------1--1--1---------1--1--1-----1-----|
E|-1--1--1-------------------------------------------------------4-1-|


VGJam Tabs Sonic CD - "Sonic Boom (Closing Theme)"
Tabs database last modified Saturday, 12-Apr-2014 00:15:37 CDT.
Copyright © 1999 - 2014 VideoGameJam.com. All rights reserved.