VGJam Tabs Final Fantasy II
Final Fantasy II
"Battle theme" - Guitar tab
Platform(s):Nintendo Entertainment System
Composed by:Nobuo Uematsu
Tabbed by:Cody Gratner
Last modified:1999-05-06
Print it:Original file (.TXT)
Hear it:MIDI file
Final Fantasy 2j Battle Theme
Arranged for 2 guitars (Or played with one) - "1st gt." and "2nd gt."
Tabbed By - Cody Gratner
gratner AT ix DOT netcom DOT com

e|-------------12----15-14----12h13-12-------------------------------------|
B|----12-13-15----15-------15----------15-13-12----15-13-------------------|
G|-14-------------------------------------------14-------14-14-13-14/16----|
D|----------------------------------------------------------------------14-| 2 X's
A|-------------------------------------------------------------------------| 1st gt. then
E|-------------------------------------------------------------------------| 2nd gt.

  1st gt.                  2nd gt.
e|-------------13--12-12| |-12/13\12p10-12/13\12p10-12/13\12p10-| |-12h13p12----|
B|---------13-----------| |-------------------------------------| |----------15-| 3 X's
G|-----14---------------| |-------------------------------------|      |
D|-15-------------------| |-------------------------------------|  Or /|\
A|----------------------| |-------------------------------------|      |
E|----------------------| |-------------------------------------|

  1st gt.        2nd gt.
e|----------1-| |--------------|
B|-------1----| |--------------|
G|----2-------| |-4-4----------|
D|-3----------| |-2-2----------|
A|------------| |--------------|
E|------------| |-------0/17\0-|

  1st gt.
  p.m..............................
e|---------------------------------|
B|---------------------------------|  **
G|---------------------------------|
D|---------------0-------2-------3-|   |
A|-0-1-0-4-0-1-0---0-1-0---0-1-0---|  \|/
E|---------------------------------|   V

  2nd gt.
e|-------------------------|
B|-13--12-11--10-9--8-7--5-|
G|-------------------------|
D|-------------------------|
A|-------------------------|
E|-------------------------|

  1st gt.
e|-----------------------------------|
B|-----------------------------------|
G|-----------------------------------|  Could play
D|----------------7-------9-------10-|  ** instead.
A|-7-8-7-11-7-8-7-5-7-8-7-7-7-8-7-8--|
E|-5-6-5-9--5-6-5---5-6-5---5-6-5----|

  2nd gt.
e|---------------------|
B|-1--0----------------|
G|------3--2-1--0------|
D|----------------4--2-|
A|---------------------|
E|---------------------|

  1st gt.
e|-----------------------------------|
B|-----------------------------------|
G|-----------------------------------|  Could play
D|----------------7-------9-------10-|  ** instead.
A|-7-8-7-11-7-8-7-5-7-8-7-7-7-8-7-8--|
E|-5-6-5-9--5-6-5---5-6-5---5-6-5----|

  1st gt. (2nd gt. plays 8vb)--------------------------|
e|-------------------------12-12-13-13-15-15-16-16-|   |
B|-------12-12-13-13-15-15-------------------------|   |
G|-14-14-------------------------------------------|   |
D|-------------------------------------------------|   |
A|-------------------------------------------------|   |
E|-------------------------------------------------|   |
                                                       |
e|-----------------0-0-1-1-3-3-4-4-|      /            |
B|-----0-0-1-1-3-3-----------------|    <<             |
G|-2-2-----------------------------|  <<<--------------|
D|---------------------------------|    <<
A|---------------------------------|      \
E|---------------------------------|
VGJam Tabs Final Fantasy II - "Battle theme"
Tabs database last modified Tuesday, 01-Nov-2016 19:14:53 UTC.
Copyright © 1999 - 2016 VideoGameJam.com. All rights reserved.