VGJam Tabs Final Fantasy III
Final Fantasy III
"Elia, the Maiden of Water" - Guitar tab
Platform(s):Nintendo Entertainment System
Composed by:Nobuo Uematsu
Tabbed by:Arcallach
Last modified:2002-04-04
Print it:Original file (.TXT)
Hear it:MIDI file
Song: Elia, the Maiden of Water
From: Final Fantasy III
Tabbed by Arcallach (arcallach@erols.com)
Feel free to send comments, corrections, requests, or anything else.

Flute

e-0-7~--5-10~--3~--1-0-1-8~--0---0-7-0-7~--5-10~--3~--1-0-1-8-8-5-1-----0-0~-----------
B------------------------------3------------------------------------3~-----------------
G--------------------------------------------------------------------------------------
D--------------------------------------------------------------------------------------
A--------------------------------------------------------------------------------------
E--------------------------------------------------------------------------------------

Play that twice, then this once...

e-0-1-3-5-7-8-8~--8-7-7~--7-7~--5-1-----1-0~-------------------------------------------
B-----------------------------------1-3------------------------------------------------
G--------------------------------------------------------------------------------------
D--------------------------------------------------------------------------------------
A--------------------------------------------------------------------------------------
E--------------------------------------------------------------------------------------

e-8--8~--8-10-12~--12-15-17-17-17-15-17~--17-15-17~------------------------------------
B--------------------------------------------------------------------------------------
G--------------------------------------------------------------------------------------
D--------------------------------------------------------------------------------------
A--------------------------------------------------------------------------------------
E--------------------------------------------------------------------------------------

Harp

e-----1-5-1---------0-3-0-----------5-1-----------3-1----------------------------------
B---1-------1-----0-------0-------3-----3-------1-----1--------------------------------
G-------------------------------2-------------0----------------------------------------
D-3-------------2-------------0--------------------------------------------------------
A-------------------------------------------3------------------------------------------
E--------------------------------------------------------------------------------------

e-----1-5-1---------0-3-0-----------5-1---------------1---------0----------------------
B---1-------1-----0-------0-------3-----3-----------1---------1---1--------------------
G-------------------------------2-----------------1---------0-------0------------------
D-3-------------2-------------0---------------0-3--------------------------------------
A---------------------------------------------------------3----------------------------
E-------------------------------------------4------------------------------------------

Play that twice, then this once...

e-------0-3-7-------0-5-8-12-----0-3-8-12---------1-8-13-------0-----------------------
B-----1-----------1------------1----------------1----------------3-1-0-----------------
G---0-----------2------------0----------------2----------------------------------------
D-------------------------------------------3----------------2-------------------------
A-3--------------------------------------------------------3---------------------------
E--------------------------------------------------------------------------------------

e-----0-5-8-12-------0-3-8-12-------1-6-10-13---------3-6-10-----0-5-9-5-0-9-5-0-------
B---1--------------1--------------3-----------------3----------------------------2-----
G-2--------------0--------------3---------------0-3------------2-------------------2---
D------------------------------------------------------------------------------------2-
A--------------------------------------------------------------------------------------
E--------------------------------------------------------------------------------------

VGJam Tabs Final Fantasy III - "Elia, the Maiden of Water"
Tabs database last modified Tuesday, 01-Nov-2016 19:14:53 UTC.
Copyright © 1999 - 2016 VideoGameJam.com. All rights reserved.