VGJam Tabs Final Fantasy III
Final Fantasy III
"Jin, the Fire" - Guitar tab
Platform(s):Nintendo Entertainment System
Composed by:Nobuo Uematsu
Tabbed by:Cody Gratner
Last modified:1999-04-06
Print it:Original file (.TXT)
Hear it:MIDI file
	Jinn, The Fire
	Final Fantasy 3j
	Tabbed by CodY Gratner  -  gratner AT ix DOT netcom DOT com
	All timing seems right to me, download the "IT" file to hear
	Oh and sorry, the bass is on top and the guitar is on bottom, oops...
	      |       |        |       |
  1    G|--------------------------------------|
       D|--------------------------------------|
       A|-------------12---0-----------12---0--|
       E|----10----------------11--------------|
	{				       } 2x's
       e|---------------------------------5----|
       B|---------------------------------8----|
       G|--------------------------------------|
       D|--------------------------------------|
       A|--------------------------------------|
       E|--------------------------------------|
	
	      |         |         |        |        |        |        |        |
  2     |------------------------------------------------------------------------------|
	|------------------------------------------------------------------------------|
	|---------------12---0-------------12---0------------12---0------------12---0--|
	|-----10------------------11----------------10----------------11---------------|
	{				      					       }
	|------------5--8--12--10-8----8--8--------------------------------------------|
	|---2/3-5-6-------------------------8-10-11-10~~-------------------------------|
	|------------------------------------------------------------------------------|
	|------------------------------------------------------------------------------|
	|------------------------------------------------------------------------------|
	|------------------------------------------------------------------------------|
											Extra
	      |                 |                 |               |                | <- Shows
  3     |------------------------------------------------------------------------------|Timing
	|------------------------------------------------------------------------------|
	|-----------------------12-------0------------------------12--------0----------|Cont.
	|-----10----------------------------------11-----------------------------------|below
	{				      					       }
	|-----------------17----20----24----22----20-------20-----20-------------------|
	|-14/15--17--18------------------------------------------------20--22--23--22~~|
	|------------------------------------------------------------------------------|
	|------------------------------------------------------------------------------|
	|------------------------------------------------------------------------------|
	|------------------------------------------------------------------------------|
	
	      |       |        |       |
	|--------------------------------------|
	|--------------------------------------|
	|-------------12---0-----------12---0--|
	|----10----------------11--------------|
	{				       }
	|--------------------------------------|
	|--------------------------------------|
	|--------------------------------------|
	|--------------------------------------|
	|--------------------------------------|
	|--------------------------------------|	
	
	      |       |        |       |
  4     |--------------------------------------|
	|-------------8----------------7-------|
	|-----------8----------------7---------|
	|-----6--------------6-5------------5--|
	{				       }
	|-------------------------------9---5--|
	|-------------------------------5---4--|
	|--------------------------------------|
	|--------------------------------------|
	|--------------------------------------|
	|--------------------------------------|
	
	      |       |        |       |
  5     |--------------------------------------|
	|-------------8------------------------|
	|-----------8----------------7---------|
	|-----6--------------6-5-------5-------|
	{				       }
	|--------------------------------------|
	|--------------------------------------|
	|--------------------------------------|
	|--------------------------------------|
	|--------------------------------------|
	|--------------------------------------|
	
	      |       |        |       |
  6     |--------------------------------------|
	|-------------8----------------7-------|
	|-----------8----------------7---------|
	|-----6--------------6-5------------5--|
	{				       }
	|-------------------------------9---5--|
	|-------------------------------5---4--|
	|--------------------------------------|
	|--------------------------------------|
	|--------------------------------------|
	|--------------------------------------|
	
	      |       |        |       |
  7     |--------------------------------------|
	|-------------8------------------------|
	|-----------8----------------7---------|
	|-----6--------------6-5-------5-------|
	{				       }
	|--------------------------------------|
	|--------------------------------------|
	|--------------------------------------|
	|--------------------------------------|
	|--------------------------------------|
	|--------------------------------------|


			~FIN~

   |               |                |               |   <----------- timing (added one atop
|------------------------5------------6-8----8-10^--8----------------| is to show when note
|----------------------5------------9-----------------10-8-9~~~~~~~~-| is hit, NOT AN EXTRA
|------------------7-6-----------------------------------------------| BEAT!!!!!)
|-/8-7-5-------------------------------------------------------------|
|--------5-----------------------------------------------------------|
|--------------------------------------------------------------------|

/ = slide
~ = vibrato
^ = bend


VGJam Tabs Final Fantasy III - "Jin, the Fire"
Tabs database last modified Tuesday, 01-Nov-2016 19:14:53 UTC.
Copyright © 1999 - 2016 VideoGameJam.com. All rights reserved.