VGJam Tabs Final Fantasy III
Final Fantasy III
"My Home Town" - Guitar tab
Platform(s):Nintendo Entertainment System
Composed by:Nobuo Uematsu
Tabbed by:Arcallach
Last modified:2002-04-27
Print it:Original file (.TXT)
Song: My Home Town
From: Final Fantasy III
Tabbed by Arcallach (arcallach@erols.com)
Feel free to send comments, corrections, requests, or anything else.

Lead Melody

e-7-16-14-12-11-12-4-9-7~--2~--9-7~--2~--9-7-5-0~------------------------------
B------------------------------------------------------------------------------
G------------------------------------------------------------------------------
D------------------------------------------------------------------------------
A------------------------------------------------------------------------------
E------------------------------------------------------------------------------

e-0-2-3~--5-3-2-3-7~--4~--6-7-6-12-11-12-14~-----------------------------------
B------------------------------------------------------------------------------
G------------------------------------------------------------------------------
D------------------------------------------------------------------------------
A------------------------------------------------------------------------------
E------------------------------------------------------------------------------

e-16~--7-11-12~--11-9-7~--7-9-11-12-4-5-7~-------------------------------------
B------------------------------------------------------------------------------
G------------------------------------------------------------------------------
D------------------------------------------------------------------------------
A------------------------------------------------------------------------------
E------------------------------------------------------------------------------

e-4-5-4-9-7-5-4~--5-2~--5-7-5-12-5-7-5-4~--7-12-16-11~--9-12-9-5-2-0~--2~--0~--
B------------------------------------------------------------------------------
G------------------------------------------------------------------------------
D------------------------------------------------------------------------------
A------------------------------------------------------------------------------
E------------------------------------------------------------------------------

VGJam Tabs Final Fantasy III - "My Home Town"
Tabs database last modified Tuesday, 01-Nov-2016 19:14:53 UTC.
Copyright © 1999 - 2016 VideoGameJam.com. All rights reserved.