VGJam Tabs Friday the 13th
Friday the 13th
"Intro" - Guitar tab
Platform(s):Nintendo Entertainment System
Tabbed by:superjerk
Last modified:2000-06-07
Print it:Original file (.TXT)
Hear it:MIDI file
Friday the 13th Intro
---------------------

  This is the intro music to the Friday the 13th Nintendo game. It should be
played with a delay/echo. This tab is for 2 guitars. The 3 high strings on
one, the 3 low on the other. It should be pretty complete. Enjoy!

Riff #1
E-|-14-------14------12-------12-------14-------14-------12-------12-------|
B-|-------15------15-------14-------14-------15-------15-------14-------14-|
G-|----16------16-------15-------15-------16-------16-------15-------15----|
D-|------------------------------------------------------------------------|
A-|-2----------------1-----------------2-----------------1-----------------|
E-|------------------------------------------------------------------------|

Riff #1 (continued)
E-|-12-------12------11-------11-------11------11-------|
B-|-------14------14-------13-------13------13-------13-|
G-|----14------14-------14-------14------13-------13----|
D-|-----------------------------------------------------|
A-|-0----------------3----------------------------------|
E-|------------------------------------4----------------|

Riff #2 (1st end to riff #1)
E-|-9-------9-------|
B-|------11------11-|
G-|---12------12----|
D-|-----------------|
A-|-----------------|
E-|-3---------------|

Riff #3 (2nd end to riff #1)
E-|-9---8-9---8-|
B-|---9-----9---|
G-|-------------|
D-|-------------|
A-|-------------|
E-|-2-----------|

Riff #4
E-|-------------------------------------------------------------------------|
B-|-11----10-11----10-11----10-11----10-11----10-11----10-11----10-11----10-|
G-|----12-------12-------12-------12-------12-------12-------12-------12----|
D-|-------------------------------------------------------------------------|
A-|-------------------------------------------------------------------------|
E-|-3-----------------3-----------------3-----------------3-----------------|

Riff #5 (twice) 
E-|-15-------13-------13-------11-------11------10------10-----8-----|
B-|-------13----13-15-------11----11-13-------9----9-11------8---8-9-|
G-|----13----------------12----------------10--------------8---------|
D-|-------------------------------------------------(1)--------------|
A-|-------------------------------------------------(3)--------------|
E-|-4-----------------3-----------------1----------------------------|

Note: The (1) is played the first time, the (3) is played the 2nd.

Here's the order...
Riff #1
Riff #2
Riff #1
Riff #3
Riff #4
Riff #5 (twice, of course)

Repeat forever and ever...

-----------------
superjerk@usa.net
-----------------
VGJam Tabs Friday the 13th - "Intro"
Tabs database last modified Tuesday, 01-Nov-2016 19:14:53 UTC.
Copyright © 1999 - 2016 VideoGameJam.com. All rights reserved.