VGJam Tabs Gauntlet
Gauntlet
"Song A" - Guitar tab
Platform(s):Nintendo Entertainment System
Tabbed by:Frank Marchunt
Last modified:2000-09-09
Print it:Original file (.TXT)
Hear it:MIDI file
Gauntlet

-0--24--22--21--22--21----------------------------------
----------------------------22--20-19---------17trill19--
----------------------------------------21-20-------
---------------------------------------------
---------------------------------------------
---------------------------------------------



-------19--17--19-----------20--19--20--17----17--15--17-------19--17--19-----------
--17-----------------17-----------------------------------15-----------------20-----
---------------------------------------------
---------------------------------------------
---------------------------------------------
---------------------------------------------



-15--14--15--------17--15--17----------14--12--14-----24-22-20-19--------------12-10-8------------
--------------13-----------------18---------------------------------22-20-19-------------12-10-8-----
---------------------------------------------------------------------------------------------------11-9-
---------------------------------------------
---------------------------------------------
---------------------------------------------



-------19--17--19-----------20--19--20--17----17--15--17-------19--17--19-----------
--17-----------------17------------------------------------15----------------20-----
---------------------------------------------
---------------------------------------------
---------------------------------------------
---------------------------------------------



-15--14--15--------17--15--17----------14--12--14--------12---------
--------------13----------------18------------------12--------------
--------------------------------------------------------------------
---------------------------------------------
---------------------------------------------
---------------------------------------------



-19-17-19-15-19-14-19-------20--19--20--17-------------------------
-----------------------17----------------
---------------------------------------------
---------------------------------------------
---------------------------------------------
---------------------------------------------



-17-15-17-14-17-12-17-------19-17-19-15----------------------------
------------------------15----------------
---------------------------------------------
---------------------------------------------
---------------------------------------------
---------------------------------------------



-15-14-15-12-15-10-15------17-15-17-13---------------------
-----------------------13---------------------------------------------
---------------------------------------------
---------------------------------------------
---------------------------------------------
---------------------------------------------


sweeps
-------------------14--19--14------------------------------14--19--14----------
---------------16---------------16----------------------16----------------16----------------------
-----------16-----------------------16-------------16-------------------------16----------
-------16-------------------------------16-----16---------------------------------16---
--14---------------------------------------14------------------------------------------14-----
---------------------------------------------



-----------------15-20-15--------------------------15-20-15--------
-------------17-------------17------------------17-------------17-------
---------17--------------------17-----------17---------------------17----------
-----17---------------------------17----17----------------------------17-------
-15----------------------------------15-----------------------------------15-----
---------------------------------------------



--------------17-22-17---------------------17-22-17------
-----------19-----------19---------------19-----------19--------
--------19-----------------19---------19-----------------19------
-----19-----------------------19---19------------------------19---
-17------------------------------17------------------------------17---
---------------------------------------------



---------------19-24-19-----------------------19-24-19---
-----------20-------------20----------------20-----------20---
--------21-------------------21----------21-----------------21---
-----21-------------------------21----21-----------------------21---
-19--------------------------------19------------------------------19--------
---------------------------------------------



-19------20----19-22-20-19------------22--19-20-17-19--------------
-----20------------------------22-22--------------------------20--19--15--17---------
---------------------------------------------
---------------------------------------------
---------------------------------------------
---------------------------------------------


-------------------------------------------23-----24--24--24--24---
-17-18-20--17-----19-20-22------22-----22----------------------
-----------------------------------20----------
---------------------------------------------
---------------------------------------------
---------------------------------------------


--15-14-15-12-15-10-15-------------------------------------
------------------------------13---12-15-13-12---------
----------------------------------------------------14--------
---------------------------------------------
---------------------------------------------
---------------------------------------------



---------------------------------------------
-19-17-19-15-19-13-19--------------------------------------
-----------------------------16---14-17-16-14----------
---------------------------------------------------17---
---------------------------------------------
---------------------------------------------


---------------------------------------------
17-15-17-13-17-12-17---------------------------------------
----------------------------14-----------------
---------------------------------------------
---------------------------------------------
---------------------------------------------



-----------19-------------19-----------24-24-24-24------
-------16------16-----16-----16--17--------------------
--16---------------16----------------------------
---------------------------------------------
---------------------------------------------
---------------------------------------------



-----19-24-19------19--24-19------------15-20-(sweep4 times)---------------
-20--------------20-------------------17---------
-----------------------------------17-------
---------------------------------------------
---------------------------------------------
---------------------------------------------



---------22-17---------22-17------------15-19-15(sweep4times)-----------
-----19-------------19---------------15-----------
-19-------------19----------------16---------------
---------------------------------------------
---------------------------------------------
---------------------------------------------



-24-24-22-24--20-20-19-20------------------------------------
----------------------------------22-22-20-22-----19-19-17-19-----
--------------------------------------------------------------------16-------
---------------------------------------------
---------------------------------------------
---------------------------------------------
VGJam Tabs Gauntlet - "Song A"
Tabs database last modified Tuesday, 01-Nov-2016 19:14:53 UTC.
Copyright © 1999 - 2016 VideoGameJam.com. All rights reserved.