VGJam Tabs Gauntlet
Gauntlet
"Title screen" - Guitar tab
Platform(s):Nintendo Entertainment System
Tabbed by:wildavidg
Last modified:2000-01-17
Print it:Original file (.TXT)
Hear it:MIDI file
     1  '  '  '  2  '  '  '  3  '  '  '  4  '  '  ' 
  |-----12-10-8--7--8--7-----------------trill----------
  |-----------------------10-8--7--------5(7)______-----
  |--7-----------------------------9--8-----------------
  |-----------------------------------------------------
  |-----------------------------------------------------
  |-----------------------------------------------------
  |
  |  1  '  '  '  2  '  '  '  3  '  '  '  4  '  '  ' 
  |-----------------------------------------------------
  |-----------------------------------------------------
  |-----------------------------------------------------
  |--2--------------------------------------------------
  |-----------------------------------------------------
  |--0--------------------------------------------------



     1  '  '  '  2  '  '  '  3  '  '  '  4  '  '  ' 
  |--------------------------------7--5--7--------------
  |--_____________-----------------------------5--------
  |-----------------------------------------------------
  |-----------------------------------------------------
  |-----------------------------------------------------
  |-----------------------------------------------------
  |
  |  1  '  '  '  2  '  '  '  3  '  '  '  4  '  '  ' 
  |-----------------------------------------------------
  |-----------------------------------------------------
  |--------------------------0-----------------0--------
  |--------------------------2-----------------2--------
  |-----------------------------------------------------
  |-----------------------------------------------------



     1  '  '  '  2  '  '  '  3  '  '  '  4  '  '  ' 
  |--------8--7--8-----5-----------5--3--5--------------
  |--------------------------------------------3--------
  |-----------------------------------------------------
  |-----------------------------------------------------
  |-----------------------------------------------------
  |-----------------------------------------------------
  |
  |  1  '  '  '  2  '  '  '  3  '  '  '  4  '  '  ' 
  |-----------------------------------------------------
  |-----------------------------------------------------
  |-----------------------------------------------------
  |--2-----------------------4-----------------4--------
  |--0-----------------------5-----------------5--------
  |-----------------------------------------------------



     1  '  '  '  2  '  '  '  3  '  '  '  4  '  '  ' 
  |--------7--5--7-----------------3--2--3--------------
  |--------------------8-----------------------1--------
  |-----------------------------------------------------
  |-----------------------------------------------------
  |-----------------------------------------------------
  |-----------------------------------------------------
  |
  |  1  '  '  '  2  '  '  '  3  '  '  '  4  '  '  ' 
  |-----------------------------------------------------
  |-----------------------------------------------------
  |-----------------------------------------------------
  |--------------------------2-----------------2--------
  |--5-----------------------3-----------------3--------
  |--3--------------------------------------------------



     1  '  '  '  2  '  '  '  3  '  '  '  4  '  '  ' 
  |--------5--3--5-----------------2--0--2--------------
  |--------------------6--------------------------------
  |-----------------------------------------------------
  |-----------------------------------------------------
  |-----------------------------------------------------
  |-----------------------------------------------------
  |
  |  1  '  '  '  2  '  '  '  3  '  '  '  4  '  '  ' 
  |-----------------------------------------------------
  |-----------------------------------------------------
  |-----------------------------------------------------
  |--------------------------1--------------------------
  |--3-----------------------2-----------------2--------
  |--1--------------------------------------------------



     1  '  '  '  2  '  '  '  3  '  '  '  4  '  '  ' 
  |-----12-10-------------------0-----------------------
  |-----------13-12-10-------------3--1--0--------------
  |--------------------12-11----------------2--0--------
  |-----------------------------------------------4-----
  |-----------------------------------------------------
  |-----------------------------------------------------
  |
  |  1  '  '  '  2  '  '  '  3  '  '  '  4  '  '  ' 
  |-----0-----------------------0-----------------------
  |--------3--1--0-----------------3--1--0--------------
  |-----------------2--0--------------------2--0--------
  |-----------------------4-----------------------4-----
  |-----------------------------------------------------
  |--0-----------------------0--------------------------



     1  '  '  '  2  '  '  '  3  '  '  '  4  '  '  ' 
  |--------7--5--7-----------------8--7--8-----5--------
  |--------------------5--------------------------------
  |-----------------------------------------------------
  |-----------------------------------------------------
  |-----------------------------------------------------
  |-----------------------------------------------------
  |
  |  1  '  '  '  2  '  '  '  3  '  '  '  4  '  '  ' 
  |-----------------------------------------------------
  |--------0-----------------------1--------------------
  |--------------0-----------2-----------2--------------
  |--2-----------------2--------------------------------
  |-----------------------------------------------------
  |-----------------------------------------------------



     1  '  '  '  2  '  '  '  3  '  '  '  4  '  '  ' 
  |--------5--3--5-----------------7--5--7--------------
  |--------------------3-----------------------8--------
  |-----------------------------------------------------
  |-----------------------------------------------------
  |-----------------------------------------------------
  |-----------------------------------------------------
  |
  |  1  '  '  '  2  '  '  '  3  '  '  '  4  '  '  ' 
  |-----------------------------------------------------
  |--------------------------------0--------------------
  |--------2-----------------0-----------0--------------
  |--0-----------4-----0--------------------------------
  |-----------------------------------------------------
  |-----------------------------------------------------



     1  '  '  '  2  '  '  '  3  '  '  '  4  '  '  ' 
  |--------3--2--3-----------------5--3--5--------------
  |--------------------1-----------------------6--------
  |-----------------------------------------------------
  |-----------------------------------------------------
  |-----------------------------------------------------
  |-----------------------------------------------------
  |
  |  1  '  '  '  2  '  '  '  3  '  '  '  4  '  '  ' 
  |-----------------------------------------------------
  |--------------------------------1--------------------
  |--------0--------------------------------------------
  |--------------2-----------3-----------3--------------
  |--3-----------------3--------------------------------
  |-----------------------------------------------------



     1  '  '  '  2  '  '  '  3  '  '  '  4  '  '  ' 
  |--------2--0--2--------------------------------------
  |--------------------0--------------------------------
  |-----------------------------------------------------
  |--------------------------2--------------------------
  |-----------------------------------------------------
  |-----------------------------------------------------
  |
  |  1  '  '  '  2  '  '  '  3  '  '  '  4  '  '  ' 
  |-----------------------------------------------------
  |-----------------------------------------------------
  |--------------------------0--------------------------
  |--1-----------2-----4-----------------------1--------
  |--2-----------------------------2-----4--------------
  |-----------------------------------------------------



     1  '  '  '  2  '  '  '  3  '  '  '  4  '  '  ' 
  |-----7--5--7--3--7-----7--0--------------------------
  |--------------------7--------------------------------
  |-----------------------------------------------------
  |-----------------------------------------------------
  |-----------------------------------------------------
  |-----------------------------------------------------
  |
  |  1  '  '  '  2  '  '  '  3  '  '  '  4  '  '  ' 
  |-----------------------------------------------------
  |--------0-----0-----------------1--0--1--------------
  |-----------2--------------2-----------2-----2--------
  |--2-----------2--------------------------------------
  |-----------------------------------------------------
  |-----------------------------------------------------



     1  '  '  '  2  '  '  '  3  '  '  '  4  '  '  ' 
  |-----5--3--5--2--5--0--5-----------------------------
  |--------------------------3--------------------------
  |-----------------------------------------------------
  |-----------------------------------------------------
  |-----------------------------------------------------
  |-----------------------------------------------------
  |
  |  1  '  '  '  2  '  '  '  3  '  '  '  4  '  '  ' 
  |-----------------------------------------------------
  |--------------------------------0-----0--------------
  |--------2--0--2-----------0--------2--0-----0--------
  |--0-----------0--------------------------------------
  |-----------------------------------------------------
  |-----------------------------------------------------



     1  '  '  '  2  '  '  '  3  '  '  '  4  '  '  ' 
  |-----------------------------------------------------
  |-----8--7--8--5--8-----8-----------------------------
  |--------------------7-----5--------------------------
  |-----------------------------------------------------
  |-----------------------------------------------------
  |-----------------------------------------------------
  |
  |  1  '  '  '  2  '  '  '  3  '  '  '  4  '  '  ' 
  |-----------------------------------------------------
  |-----------------------------------------------------
  |--------0-----0-----------------2--0--2--------------
  |-----------4--------------3-----------------3--------
  |--3-----------3--------------------------------------
  |-----------------------------------------------------



     1  '  '  '  2  '  '  '  3  '  '  '  4  '  '  '  1
  |-----12-10-------------------------------------------
  |-----------13-12-10----------------------------------
  |--------------------12-11----------------------------
  |-----------------------------2--0--------------------
  |-----------------------------------3--2--0-----------
  |--------------------------------------------3--2--0--
  |
  |  1  '  '  '  2  '  '  '  3  '  '  '  4  '  '  '  1
  |-----0-----------------------0--------------------0--
  |--------3--1--0-----------------3--1--0--------------
  |-----------------2--0--------------------2--0-----0--
  |-----------------------4-----------------------4-----
  |--2-----------------------2--------------------------
  |-----------------------------------------------------

VGJam Tabs Gauntlet - "Title screen"
Tabs database last modified Tuesday, 01-Nov-2016 19:14:53 UTC.
Copyright © 1999 - 2016 VideoGameJam.com. All rights reserved.