VGJam Tabs Ys
Ys
"In the Memory" - Guitar tab
Platform(s):MSX
Composed by:Yuzo Koshiro
Soundtrack:Music from Ys (track 33)
Tabbed by:Lentium
Last modified:2002-06-26
Print it:Original file (.TXT)
Hear it:MIDI file
Ys 1 - In The Memory
Music from Ys - Track 33, Music from Ys Renewal - Track 33
Original Song by: Yuzo Koshiro
Tabbed for Guitar by: Lentium
                      Lentium@ns.sympatico.ca
                      ICQ#: 73088333

This is tabbed for 1 guitar.  During the last triads there is another synth
that's in the background but I don't feel I could hear it well enough to
accurately tab it out.  If anyone wants to help me with this feel free
to get in contact with me.

The way the original synth lead played the song resulted in any note
that was sustained for any length of time was modulated, so I added
vibrato to each of these notes. (represented by a ~)

Song is in standard tuning (EADGBE).

|--------------------------------------|
|--6--------6--------6--------6--------|
|-----7--------7--------7--------7-----|
|--------7--------7--------7--------7--|
|--------------------------------------|
|--------------------------------------|




--------------------------------------|--------------------------------------|
--6--------6--------5--------8--5-----|--6--------6--------6--------6--------|
-----7--------7--------6-----------6--|-----7--------7--------7--------7-----|
--------7--------7--------7-----------|--------7--------7--------7--------7--|
--------------------------------------|--------------------------------------|
--------------------------------------|--------------------------------------|




--------------------------------------|--------------------------------------|
--6--------6--------5--------8--6--5--|--6--------6--------6--------6--------|
-----7--------7--------6--------------|-----7--------7--------7--------7-----|
--------7--------7--------7-----------|--------7--------7--------7--------7--|
--------------------------------------|--------------------------------------|
--------------------------------------|--------------------------------------|




--------------------------------------|--------------------------------------|
--6--------6--------6--------6--------|--5--------6--------5--------6--------|
-----7--------7--------7--------7-----|-----7--------7--------7--------7-----|
--------7--------7--------5--------5--|--------5--------5--------5--------5--|
--------------------------------------|--------------------------------------|
--------------------------------------|--------------------------------------|




--------------------------------------|-----------------------------------|
--5--------------------------8--6--5--|-----------------------------------|
-----7-----7--6-----9--7--6-----------|--7-----7--9--10--9--7~-----9--10--|
--------5--------7--------------------|-----7-----------------------------|
--------------------------------------|-----------------------------------|
--------------------------------------|-----------------------------------|



-----------------------------|-------------------------|
-----------------------------|-------------------------|
--9--------------------------|--7-----------------7~---|
-----10----------------7--8--|-----8---------8~--------|
---------10~-----------------|--------8~---------------|
-----------------------------|-------------------------|



------------------------|-----------------------------------|
------------------------|-----------------------------------|
--7~-----6--7--9~-------|--7-----7--9--10--9--7~-----9--10--|
------------------------|-----7-----------------------------|
------------------------|-----------------------------------|
------------------------|-----------------------------------|



-----------------------------|--------------------------|
-----------------------------|--------------------------|
--9--------------------------|--7~-----10--7--9~---6~---|
-----10----------------7--8--|--------------------------|
---------10~-----------------|--------------------------|
-----------------------------|--------------------------|



------------------------|----------------------------|
---------------------8--|--10~-----8------8~---------|
--7~-------------10-----|-------------10-------------|
------------------------|----------------------10~---|
------------------------|----------------------------|
------------------------|----------------------------|



--------------------------|------------------------------|
--------------------------|---------------------------8--|
--10~-----9--7--9~--------|--7~-----9--10--9~-----10-----|
---------------------7~---|------------------------------|
--------------------------|------------------------------|
--------------------------|------------------------------|



--------------------------------|----------------------------|
--10~-----11--10--8~---------8--|--10~-----8------8~---------|
-------------------------10-----|-------------10-------------|
--------------------------------|----------------------10~---|
--------------------------------|----------------------------|
--------------------------------|----------------------------|



--------------------------|------------------------------|
--------------------------|---------------------------8--|
--10~-----9--7--9~--------|--7~-----9--10--9~-----10-----|
---------------------7~---|------------------------------|
--------------------------|------------------------------|
--------------------------|------------------------------|



------------------------------|--------------------------|
-------------8----------------|--------------------------|
--9~-----10-----10~-----7--9--|--10~-----9--7--9~---6~---|
------------------------------|--------------------------|
------------------------------|--------------------------|
------------------------------|--------------------------|



-----------------------------------|-----------------------------|
-----------------------------------|-----------------------------|
--7-----7--9--10--9--7~-----9--10--|--9--------------------------|
-----7-----------------------------|-----10----------------7--8--|
-----------------------------------|---------10~-----------------|
-----------------------------------|-----------------------------|



-------------------------|------------------------|
-------------------------|------------------------|
--7-----------------7~---|--7~-----6--7--9~-------|
-----8---------8~--------|------------------------|
--------8~---------------|------------------------|
-------------------------|------------------------|



-----------------------------------|-----------------------------|
-----------------------------------|-----------------------------|
--7-----7--9--10--9--7~-----9--10--|--9--------------------------|
-----7-----------------------------|-----10----------------7--8--|
-----------------------------------|---------10~-----------------|
-----------------------------------|-----------------------------|



--------------------------|--------------------------------------|
--------------------------|--------6--------6--------6--------6--|
--7~-----10--7--9~---6~---|--7--------7--------7--------7--------|
--------------------------|-----7--------7--------7--------7-----|
--------------------------|--------------------------------------|
--------------------------|--------------------------------------|




--------------------------------------|--------------------------------------|
--------6--------6--5-----------5-----|--------6--------6--------6--------6--|
--7--------7-----------7--6--7-----6--|--7--------7--------7--------7--------|
-----8--------8-----------------------|-----7--------7--------7--------7-----|
--------------------------------------|--------------------------------------|
--------------------------------------|--------------------------------------|




--------------------------------------|--------------------------------------|
--------6--------6--5--------8--6--5--|--------6--------6--------6--------6--|
--7--------7-----------7--6-----------|--7--------7--------7--------7--------|
-----8--------8-----------------------|-----7--------7--------7--------7-----|
--------------------------------------|--------------------------------------|
--------------------------------------|--------------------------------------|




--------------------------------------|--------------------------------------|
--------6--------6--5-----------5-----|--------6--------6--------6--------6--|
--7--------7-----------7--6--7-----6--|--7--------7--------7--------7--------|
-----8--------8-----------------------|-----7--------7--------7--------7-----|
--------------------------------------|--------------------------------------|
--------------------------------------|--------------------------------------|




--------------------------------------|--------5--------5--------5--------5--|
--------6--------6--5--------8--6--5--|--6--------6--------6--------6--------|
--7--------7-----------7--6-----------|-----7--------7--------7--------7-----|
-----8--------8-----------------------|--------------------------------------|
--------------------------------------|--------------------------------------|
--------------------------------------|--------------------------------------|




--------5--------5--------------------|--------5--------5--------5--------5--|
--6--------6--------8--6--5--6--8--5--|--6--------6--------6--------6--------|
-----7--------7-----------------------|-----7--------7--------7--------7-----|
--------------------------------------|--------------------------------------|
--------------------------------------|--------------------------------------|
--------------------------------------|--------------------------------------|



--------5--------5-----------6--5-----|
--6--------6--------8--6--5--------8--|
-----7--------7-----------------------|
--------------------------------------|
--------------------------------------|
--------------------------------------|



----------10----------10----------10----------10--|
--10----------10----------10----------10----------|
------10----------10----------10----------10------|
--------------------------------------------------|
--------------------------------------------------|
--------------------------------------------------|



----------10----------10-------------|
--10----------10----------8----11----|
------10----------10-----------------|
-------------------------------------|
-------------------------------------|
-------------------------------------|



----------10----------10----------10----------10--|
--10----------10----------10----------10----------|
------10----------10----------10----------10------|
--------------------------------------------------|
--------------------------------------------------|
--------------------------------------------------|



----------10----------10-------------|
--10----------10---------------------|
------10----------10------12----9----|
-------------------------------------|
-------------------------------------|
-------------------------------------|



----------10----------10----------10----------10--|
--10----------10----------10----------10----------|
------10----------10----------10----------10------|
--------------------------------------------------|
--------------------------------------------------|
--------------------------------------------------|



----------10----------10-------------|
--10----------10----------8----11----|
------10----------10-----------------|
-------------------------------------|
-------------------------------------|
-------------------------------------|



----------10----------10----------10----------10--|
--10----------10----------10----------10----------|
------10----------10----------10----------10------|
--------------------------------------------------|
--------------------------------------------------|
--------------------------------------------------|



----------10----------10-------------|
--10----------10---------------------|
------10----------10------12----9----|
-------------------------------------|
-------------------------------------|
-------------------------------------|



----------10----------10----------10----------10--|
--10----------10----------10----------10----------|
------10----------10----------10----------10------|
--------------------------------------------------|
--------------------------------------------------|
--------------------------------------------------|



----------10----------10-------------|-----------------------|
--10----------10---------------------|-----------------------|
------10----------10------12----9----|--12--------11----9----|
-------------------------------------|-----------------------|
-------------------------------------|-----------------------|
-------------------------------------|-----------------------|




----------------------|
--11------------------|
------------12--------|
----------------------|
----------------------|

VGJam Tabs Ys - "In the Memory"
Tabs database last modified Tuesday, 01-Nov-2016 19:14:53 UTC.
Copyright © 1999 - 2016 VideoGameJam.com. All rights reserved.