VGJam Tabs Ghosts 'N Goblins
Ghosts 'N Goblins
"Level 1" - Guitar tab
Platform(s):Nintendo Entertainment System
Tabbed by:Daniel Lee Hill
Last modified:2000-12-23
Print it:Original file (.TXT)
Ghosts'n Goblins
Level 1

Daniel Lee Hill
ICQ: 7831222

Any comments/corrections are very welcome!


E -4-3-2-1-0-----------------------|
B -----------3-4-3-4-3-4-----------|
G ---------------------------------|
D -------------------------------5-|
A -----------------------4-5-4-5---|
E ---------------------------------|

E -4-3-2-1-0-----------------------|
B -----------3-4-3-4-3-4-----------|
G -------------------------------3-|
D ---------------------------------|
A -----------------------4-5-4-5---|
E ---------------------------------|

E -3-4-3-4---3-4-3-4---3-4-3-4---3-4-3-4---|
B ---------0---------0---------1---------3-|
G -----------------------------------------|
D -----------------------------------------|
A -----------------------------------------|
E -----------------------------------------|

E -------3-------4-------|
B -4-4-4---4-4-4---4-4-4-|
G -----------------------|
D -----------------------|
A -----------------------|
E -----------------------|

E ---------------------|
B -3-4-----------------|
G -------------0-1-3-1-|
D -----1-2-3-4---------|
A ---------------------|
E ---------------------|

E ---------------------0-2-0-2---------------------|
B -3-4-3-4---3-4-3-4-0---------4---4-1-1-1---------|
G ---------0-------------------------------3-3-0-0-|
D -------------------------------1-----------------|
A -------------------------------------------------|
E -------------------------------------------------|


I'm not sure, but this may be 1/2 up from the real version.
If that's the case, just tune flat :)

VGJam Tabs Ghosts 'N Goblins - "Level 1"
Tabs database last modified Monday, 21-Jul-2014 21:11:05 CDT.
Copyright © 1999 - 2014 VideoGameJam.com. All rights reserved.