VGJam Tabs The Guardian Legend
The Guardian Legend
"Areas 1, 2, 5, and 7" - Guitar tab
Platform(s):Nintendo Entertainment System
Composed by:Miyamo Shant
Tabbed by:Smeg
Last modified:2003-02-18
Print it:Original file (.TXT)
The Guardian Legend (NES) - Overworld areas 1, 2, 5 and 7

Composed by Miyamo Shant

Tabbed by Smeg (smeg@fefea.org)


          AH*
  e|---(4)16-|-------|---|---|
  b|---------|-4-5-7-|-4-|---|
  g|-6-------|-------|-4-|---|
  d|-6-------|-------|---|---|
  a|---------|-------|---|---|
  E|---------|-------|---|---|


          AH*
  e|---(4)16-|-4-----|---|-14-11---|
  b|---------|-4-5-7-|-4-|---------|
  g|-6-------|-------|-4-|-11--8---|
  d|-6-------|-------|---|-------9-|
  a|---------|-------|---|---------|
  E|---------|-------|---|---------|


 * Fret note in parentheses and play the harmonic at the fret above.


  e|-------|---2---|-4---|-8-10-11-10-|
  b|---5-4-|-4---4-|---4-|------------|
  g|-6-----|-4-----|-5---|-6--8--9--8-|
  d|-7-----|-------|-----|------------|
  a|-------|-------|-----|------------|
  E|-------|-------|-----|------------|


  e|-------|---2---|-4-----|-2-0---|
  b|---5-4-|-4---4-|---0-4-|---1-4-|
  g|-6-----|-4-----|-5-----|-1-----|
  d|-7-----|-------|-------|-------|
  a|-------|-------|-------|-------|
  E|-------|-------|-------|-------|

 Repeat from the beginning.

VGJam Tabs The Guardian Legend - "Areas 1, 2, 5, and 7"
Tabs database last modified Tuesday, 01-Nov-2016 19:14:53 UTC.
Copyright © 1999 - 2016 VideoGameJam.com. All rights reserved.