VGJam Tabs The Guardian Legend
The Guardian Legend
"Areas 1, 2, 5, and 7" - Bass tab
Platform(s):Nintendo Entertainment System
Composed by:Miyamo Shant
Tabbed by:Smeg
Last modified:2003-02-18
Print it:Original file (.TXT)
The Guardian Legend (NES) - Overworld areas 1, 2, 5 and 7 (bass)

Composed by Miyamo Shant

Tabbed by Smeg (smeg@fefea.org)


  g|---------|---------|------------|------------|
  d|---------|---------|------------|------------|
  a|---------|---------|-11-11-9-11-|-11-11-9-11-|
  E|-9-9-7-9-|-9-9-7-9-|------------|------------|


  g|---------|---------|------------|---------------------|
  d|---------|---------|------------|-------8-8-9-9-11-11-|
  a|---------|---------|-11-11-9-11-|-11-11---------------|
  E|-9-9-7-9-|-9-9-7-9-|------------|---------------------|


  g|-----9---8-9-----|-----------------|
  d|-7-----------7-7-|-9-9-------------|
  a|---0---7---------|-----9-9-7-7-6-6-|
  E|-----------------|-----------------|


  g|-------8-8-----------|------------------|
  d|-----------11-11-9-9-|-11---9---7---6-6-|
  a|-11-11---------------|------------------|
  E|---------------------|----9---7---5-----|


  g|-----9---8-9-----|-----------------|
  d|-7-----------7-7-|-9-9-------------|
  a|---0---7---------|-----9-9-7-7-6-6-|
  E|-----------------|-----------------|


  g|-----------------|-----------------|
  d|-6-6-6-9-9-9-----|-----------------|
  a|-------------6-6-|-6-9-9-9-7-7-6-6-|
  E|-----------------|-----------------|

 Repeat from the beginning.

VGJam Tabs The Guardian Legend - "Areas 1, 2, 5, and 7"
Tabs database last modified Tuesday, 01-Nov-2016 19:14:53 UTC.
Copyright © 1999 - 2016 VideoGameJam.com. All rights reserved.