VGJam Tabs The Guardian Legend
The Guardian Legend
"Areas 3, 4, and 8" - Guitar tab
Platform(s):Nintendo Entertainment System
Composed by:Miyamo Shant
Tabbed by:Smeg
Last modified:2003-02-18
Print it:Original file (.TXT)
The Guardian Legend (NES) - Overworld areas 3, 4 and 8

Composed by Miyamo Shant

Tabbed by Smeg (smeg@fefea.org)


  e|---------|----|-----|----------|
  b|-8-7-----|----|-----|-8-7-8-10-|
  g|-----9-7-|----|---7-|----------|
  d|---------|-10-|-7---|----------|
  a|---------|----|-----|----------|
  E|---------|----|-----|----------|


  e|---------|----|-----|-------|
  b|-8-7-----|----|-----|-8-7-8-|
  g|-----9-7-|----|---7-|-------|
  d|---------|-10-|-7---|-------|
  a|---------|----|-----|-------|
  E|---------|----|-----|-------|


  e|-10---|-------|-----|----------|
  b|----8-|-7-8-7-|---7-|-8-7-8-10-|
  g|------|-------|-7---|----------|
  d|------|-------|-----|----------|
  a|------|-------|-----|----------|
  E|------|-------|-----|----------|


  e|-10---|-------|-----|-----|
  b|----8-|-7-8-7-|---7-|-8-7-|
  g|------|-------|-7---|-----|
  d|------|-------|-----|-----|
  a|------|-------|-----|-----|
  E|------|-------|-----|-----|


  e|---------|----|-----|----------|
  b|-8-7-----|----|-----|-8-7-8-10-|
  g|-----9-7-|----|---7-|----------|
  d|---------|-10-|-7---|----------|
  a|---------|----|-----|----------|
  E|---------|----|-----|----------|


  e|---------|----|-----|-------|
  b|-8-7-----|----|-----|-8-7-8-|
  g|-----9-7-|----|---7-|-------|
  d|---------|-10-|-7---|-------|
  a|---------|----|-----|-------|
  E|---------|----|-----|-------|

 Repeat from the beginning.

VGJam Tabs The Guardian Legend - "Areas 3, 4, and 8"
Tabs database last modified Tuesday, 01-Nov-2016 19:14:53 UTC.
Copyright © 1999 - 2016 VideoGameJam.com. All rights reserved.