VGJam Tabs Ironsword: Wizards & Warriors II
Ironsword: Wizards & Warriors II
"Lava stage" - Guitar tab
Platform(s):Nintendo Entertainment System
Tabbed by:vampyre_chylde
Last modified:2001-08-28
Print it:Original file (.TXT)
Hear it:MIDI file
|----------------------------------------------
|---5-----7----8-----10-------------------------
|---4-----6----7------9------------------------
|----------------------------------------------
|----------------------------------------------
|----------------------------------------------
Repeat 3 times


|--7p5-----5-----------------------------------
|-------8-----8-7---8-7--5-7-5-3-0-------------
|----------------------------------------------
|----------------------------------------------
|----------------------------------------------
|----------------------------------------------

|-----------------------------------------------------------------
|--5---7--8----8-7-5-7-5-3-0------5--8--10-----5-7-8----------5---
|--4---6--7-----------------------4--7---9--------------5-7-------
|-----------------------------------------------------------------
|-----------------------------------------------------------------
|-----------------------------------------------------------------
Repeat 3 times

|------------------------------------------------------
|--10--8--5-------------------8--7--5------------------
|---9--7--4---6-7---9-6-7-----7--6--4---6-7-9----------
|-----------------------------------------------7-9-11-
|------------------------------------------------------
|------------------------------------------------------



oh if you can't figure out the bass (chuckle) it's
|-----------------------------------------------------
|-----------------------------------------------------
|-----------------------------------------------------
|-----------------------------------------------------
|-----------------------------------------------------
|-0------0------0----0--0--0--0----0----0-------------
  palm muted


|-----------------------------------------------------
|-----------------------------------------------------
|-----------------------------------------------------
|-----------------------------------------------------
|-0------0------0----0--0--0--0----0----0-------------
|-----------------------------------------------------

Questions, Comments, Help me, bitch at me, whatever...

vampyre_chylde@hotmail.com

VGJam Tabs Ironsword: Wizards & Warriors II - "Lava stage"
Tabs database last modified Tuesday, 01-Nov-2016 19:14:53 UTC.
Copyright © 1999 - 2016 VideoGameJam.com. All rights reserved.