VGJam Tabs Journey to Silius
Journey to Silius
"Stage 2" - Guitar tab
Platform(s):Nintendo Entertainment System
Composed by:Naoki Kodaka
Tabbed by:Smeg
Last modified:2003-02-18
Print it:Original file (.TXT)
Hear it:MIDI file
Journey to Silius (NES) - stage 2

Composed by Naoki Kodaka

Tabbed by Smeg (smeg@fefea.org)


This song has three main sections; the "A" and "C" sections are always the
same. Sections are noted to make navigation easier.

  A)

    pm......     pm.........     pm..
  e|---------------------------------|
  b|---------------------------------|
  g|---------------------------------|
  d|---------------------------------|  x8
  a|---------------------------------|
  E|-7-7-7-7-10--7-7-7-7-7-7-10--7-7-|


  B1)

  e|----------|----------------|
  b|-7--------|----------------|
  g|---9-7----|---6-7-6-7-6----|
  d|-------9~-|-9-----------7~-|
  a|----------|----------------|
  E|----------|----------------|


  e|----------------|---------------------|
  b|-7--------------|-------------10-8-7~-|
  g|---9-7----------|---6-7-9-7-6---------|
  d|-------9~---9---|-9-------------------|
  a|----------9---9-|---------------------|
  E|----------------|---------------------|


  e|----------|----------------|
  b|-7--------|----------------|
  g|---9-7----|---6-7-6-7-6----|
  d|-------9~-|-9-----------7~-|
  a|----------|----------------|
  E|----------|----------------|


  e|----------------|---------------------|-----|
  b|-7--------------|---------7-8-10-8-7~-|-10~-|
  g|---9-7----------|---6-7-9-------------|-----|
  d|-------9~---9---|-9-------------------|-----|
  a|----------9---9-|---------------------|-----|
  E|----------------|---------------------|-----|


  C)

  e|-----7-----7-----7-----7-|
  b|---7-----7-----7-----7---|
  g|-9-----9-----9-----9-----|
  d|-------------------------| x8
  a|-------------------------|
  E|-------------------------|


  e|-----9-----9-----9-----9-|-----9-----9-----9-----9-|
  b|---7-----7-----7-----7---|---7-----7-----7-----7---|
  g|-9-----9-----9-----9-----|-9-----9-----9-----9-----|
  d|-------------------------|-------------------------|
  a|-------------------------|-------------------------|
  E|-------------------------|-------------------------|


  e|-----9-----|
  b|---7-----7-|
  g|-9-----9---|
  d|-----------|
  a|-----------|
  E|-----------|


  A)

    pm......     pm.........     pm..
  e|---------------------------------|
  b|---------------------------------|
  g|---------------------------------|
  d|---------------------------------|  x8
  a|---------------------------------|
  E|-7-7-7-7-10--7-7-7-7-7-7-10--7-7-|


  B2)

  e|------|------------|------|----------------|
  b|---7~-|------------|---7~-|-----7-10~-8-7~-|
  g|------|-6-9-7-6----|------|-6-9------------|
  d|------|---------9~-|------|----------------|
  a|-9----|------------|-9----|----------------|
  E|------|------------|------|----------------|


  e|------|------------|------|-----------|-----9~-|
  b|---7~-|------------|---7~-|-----7-10~-|-11~----|
  g|------|-6-9-7-6----|------|-6-9-------|--------|
  d|------|---------9~-|------|-----------|--------|
  a|-9----|------------|-9----|-----------|--------|
  E|------|------------|------|-----------|--------|


  C)

  e|-----7-----7-----7-----7-|
  b|---7-----7-----7-----7---|
  g|-9-----9-----9-----9-----|
  d|-------------------------| x8
  a|-------------------------|
  E|-------------------------|


  e|-----9-----9-----9-----9-|-----9-----9-----9-----9-|
  b|---7-----7-----7-----7---|---7-----7-----7-----7---|
  g|-9-----9-----9-----9-----|-9-----9-----9-----9-----|
  d|-------------------------|-------------------------|
  a|-------------------------|-------------------------|
  E|-------------------------|-------------------------|


  e|-----9-----|
  b|---7-----7-|
  g|-9-----9---|
  d|-----------|
  a|-----------|
  E|-----------|


  A)

    pm......     pm.........     pm..
  e|---------------------------------|
  b|---------------------------------|
  g|---------------------------------|
  d|---------------------------------|  x8
  a|---------------------------------|
  E|-7-7-7-7-10--7-7-7-7-7-7-10--7-7-|


  B3)

  e|----------|--------------|----------|--------------|
  b|----------|--------------|----------|-----------7~-|
  g|-------7~-|-9-7-6-7-6----|-------7~-|-9-7-6-7-9----|
  d|-9-9-9----|-----------7~-|-9-9-9----|--------------|
  a|----------|--------------|----------|--------------|
  E|----------|--------------|----------|--------------|


  e|-------------------|-------------------|
  b|-------------------|-------------------|
  g|-------7~-------7~-|-------6~-------6~-|
  d|-9-9-9----9-9-9----|-7-7-7----7-7-7----|
  a|-------------------|-------------------|
  E|-------------------|-------------------|


  e|-------------------|-----------------|-----|
  b|-------------------|-------7-10-8-7~-|-10~-|
  g|-------7~-------7~-|-6-7-9-----------|-----|
  d|-9-9-9----9-9-9----|-----------------|-----|
  a|-------------------|-----------------|-----|
  E|-------------------|-----------------|-----|


  C)

  e|-----7-----7-----7-----7-|
  b|---7-----7-----7-----7---|
  g|-9-----9-----9-----9-----|
  d|-------------------------| x8
  a|-------------------------|
  E|-------------------------|


  e|-----9-----9-----9-----9-|-----9-----9-----9-----9-|
  b|---7-----7-----7-----7---|---7-----7-----7-----7---|
  g|-9-----9-----9-----9-----|-9-----9-----9-----9-----|
  d|-------------------------|-------------------------|
  a|-------------------------|-------------------------|
  E|-------------------------|-------------------------|


  e|-----9-----|
  b|---7-----7-|
  g|-9-----9---|
  d|-----------|
  a|-----------|
  E|-----------|

 Repeat from the very top.

VGJam Tabs Journey to Silius - "Stage 2"
Tabs database last modified Tuesday, 01-Nov-2016 19:14:53 UTC.
Copyright © 1999 - 2016 VideoGameJam.com. All rights reserved.