VGJam Tabs Journey to Silius
Journey to Silius
"Stage 3" - Guitar tab
Platform(s):Nintendo Entertainment System
Composed by:Naoki Kodaka
Tabbed by:Smeg
Last modified:2003-02-18
Print it:Original file (.TXT)
Hear it:MIDI file
Journey to Silius (NES) - stage 3

Composed by Naoki Kodaka

Tabbed by Smeg (smeg@fefea.org)


Bar lines probably aren't accurate on this one :)


 Two guitars:

  e|-----|-----|----|-------|-----|-----|----|---------8-|
  b|-11--|-10--|-8--|-10----|-11--|-10--|-8--|-10--11----|
  g|-----|-----|----|----10-|-----|-----|----|-----------|
  d|-----|-----|----|-------|-----|-----|----|-----------|
  a|-----|-----|----|-------|-----|-----|----|-----------|
  E|-----|-----|----|-------|-----|-----|----|-----------|
   |     |     |    |       |     |     |    |           |
   |     |     |    |       |     |     |    |           |
  e|-----|-----|----|-------|-----|-----|----|-----------|
  b|--8--|-----|----|-------|--8--|-----|----|------8-10-|
  g|-----|-10--|-9--|-10----|-----|-10--|-9--|-10--------|
  d|-----|-----|----|----10-|-----|-----|----|-----------|
  a|-----|-----|----|-------|-----|-----|----|-----------|
  E|-----|-----|----|-------|-----|-----|----|-----------|


  e|-----------|-------|----------|----|
  b|-----------|-------|----------|----|
  g|--------5--|-5-----|-------7--|-5--|
  d|-5--5-8----|---8-7-|-8-7------|----|
  a|-----------|-------|-----8----|----|
  E|-----------|-------|----------|----|


  e|-----------|-------|----------|---|
  b|-----------|-------|----------|---|
  g|--------5--|-5-----|----------|---|
  d|-5--5-8----|---8-7-|-8-7---5--|---|
  a|-----------|-------|-----8----|---|
  E|-----------|-------|----------|---|


  e|------|--------------|---|---|
  b|------|--------------|---|---|
  g|------|--------------|---|---|
  d|-/17--|-15-----------|---|---|
  a|------|----17-15-17--|---|---|
  E|------|--------------|---|---|


  e|-----|--------------|---|----------|
  b|-----|--------------|---|----------|
  g|-----|----15-14-----|---|----14-15-|
  d|-17--|-15-------17--|---|-17-------|
  a|-----|--------------|---|----------|
  E|-----|--------------|---|----------|


  e|----------------|----------------|--------------|----------|
  b|----------------|----------------|-----15-------|----------|
  g|-17-19----14-15-|-17-19----14-15-|-17-----17-15-|-14-15-17-|
  d|-17-17-17-------|-17-17-17-------|--------------|----------|
  a|----------------|----------------|--------------|----------|
  E|----------------|----------------|--------------|----------|


  e|----------------|----------------|---------15--|---|
  b|----------------|----------------|-----15------|---|
  g|-17-19----14-15-|-17-19----14-15-|-17----------|---|
  d|-17-17-17-------|-17-17-17-------|-------------|---|
  a|----------------|----------------|-------------|---|
  E|----------------|----------------|-------------|---|

 Repeat from top.

VGJam Tabs Journey to Silius - "Stage 3"
Tabs database last modified Tuesday, 01-Nov-2016 19:14:53 UTC.
Copyright © 1999 - 2016 VideoGameJam.com. All rights reserved.