VGJam Tabs Journey to Silius
Journey to Silius
"Stage 3" - Bass tab
Platform(s):Nintendo Entertainment System
Composed by:Naoki Kodaka
Tabbed by:Smeg
Last modified:2003-02-18
Print it:Original file (.TXT)
Hear it:MIDI file

Journey to Silius (NES) - stage 3 (bass)

Composed by Naoki Kodaka

Tabbed by Smeg (smeg@fefea.org)


 Drop D tuning

  g|-----------------|-------------------|-----------------|
  d|-----5-----0-3-5-|-----5-----8----10-|-----5-----0-3-5-|
  a|-----------------|-------------------|-----------------|
  D|-5-5---5-5-------|-5-5---5-8---10----|-5-5---5-5-------|


  g|-----------------|-----------------|-------------------|
  d|-----5-----3---4-|-----5-----0-3-5-|-----5-----8----10-|
  a|-----------------|-----------------|-------------------|
  D|-5-5---5-3---4---|-5-5---5-5-------|-5-5---5-8---10----|


  g|-----------------|-----------------|
  d|-----5-----0-3-5-|-----5-----3---4-|
  a|-----------------|-----------------|
  D|-5-5---5-5-------|-5-5---5-3---4---|


  g|---------------3-|-----------------|-----------------|
  d|-----5-----3-----|-----1-----0---3-|-----3---------5-|
  a|-----------------|-----------------|-----------5-----|
  D|-5-5---5-5---5---|-1-1---1-1---1---|-3-3---3-3---3---|


  g|-----------------|---------------3-|-----------------|
  d|-----------3---4-|-----5-----3-----|-----1-----0---3-|
  a|-----5-----------|-----------------|-----------------|
  D|-0-0---0-3---4---|-5-5---5-5---5---|-1-1---1-1---1---|


  g|-----------------|---------------3-|-----------------|
  d|-----3---------5-|-----5-----3-----|-----1-----1---1-|
  a|-----------5-----|-----------------|-----------------|
  D|-3-3---3-3---3---|-5-5---5-5---5---|-1-1---1-1---1---|


  g|-----------------|-----------------|-------------------|
  d|-----3-----3---3-|-----5-----5---5-|---5---7---8----10-|
  a|-----------------|-----------------|-------------------|
  D|-3-3---3-3---3---|-5-5---5-5---5---|-5---7---8---10----|


  g|-----------------|-----------------|-----------------|
  d|-----1-----1---1-|-----3-----3---3-|-----5-----5---5-|
  a|-----------------|-----------------|-----------------|
  D|-1-1---1-1---1---|-3-3---3-3---3---|-5-5---5-5---5---|


  g|-----------------|-----------------|-----------------|
  d|---5---7---8---5-|-----5-----5---5-|-----1-----1---1-|
  a|-----------------|-----------------|-----------------|
  D|-5---7---8---5---|-5-5---5-5---5---|-1-1---1-1---1---|


  g|-----------------|-----------------|-----------------|
  d|-----3-----3---3-|-----------------|-----5-----5---5-|
  a|-----------------|-----5-----5---5-|-----------------|
  D|-3-3---3-3---3---|-0-0---0-0---0---|-5-5---5-5---5---|


  g|-----------------|-----------------|-----------------|
  d|-----1-----1---1-|-----3-----3---3-|-----5-----5---5-|
  a|-----------------|-----------------|-----------------|
  D|-1-1---1-1---1---|-3-3---3-3---3---|-5-5---5-5---5---|

 Repeat from the beginning.

VGJam Tabs Journey to Silius - "Stage 3"
Tabs database last modified Tuesday, 01-Nov-2016 19:14:53 UTC.
Copyright © 1999 - 2016 VideoGameJam.com. All rights reserved.