VGJam Tabs The Legend of Zelda
The Legend of Zelda
"Caves and dungeons" - Guitar tab
Platform(s):Nintendo Entertainment System
Composed by:Koji Kondo
Tabbed by:Cole Mitchell
Last modified:2000-01-02
Print it:Original file (.TXT)
Hear it:MIDI file
LEGEND OF ZELDA: CAVE THEME
Composed by ???
Transcribed by Cole Mitchell (cole_mitchell@hotmail.com)


NOTE: Each space of two characters represents a 16th note. If the
numbers representing frets run into one another, assume
that the fret numbers are double digit, rather than single
digit 32nd notes, unless otherwise stated. For example,
-1212- is more likely to be two 16th notes on the twelfth
fret than four 32nd notes on the first and second fret.


e--------------------------------|--------------------------------|
B-----3-4-----3-4-----3-4-----3-4|-----3-4-----3-4-----3-4-----3-4|
G-0-3-----0-3-----0-3-----0-3----|---2-------2-------2-------2----|
D--------------------------------|-4-------4-------4-------4------|
A--------------------------------|--------------------------------|
E--------------------------------|--------------------------------|
| |
e--------------------------------|--------------------------------|
B--------------------------------|--------------------------------|
G-0---------------3-------7------|-6------------------------------|
D--------------------------------|---------4----------------------|
A--------------------------------|--------------------------------|
E--------------------------------|--------------------------------|
| |
G-0---------------3-------7------|-6------------------------------|
D--------------------------------|---------4----------------------|
A--------------------------------|--------------------------------|
E--------------------------------|--------------------------------|




e--------------------------------|--------------------------------|
B-----3-4-----3-4-----3-4-----3-4|-----3-4-----3-4-----3-4-----3-4|
G---1-------1-------1-------1----|---0-------0-------0-------0----|
D-3-------3-------3-------3------|-2-------2-------2-------2------|
A--------------------------------|--------------------------------|
E--------------------------------|--------------------------------|
| |
e--------------------------------|--------------------------------|
B--------------------------------|--------------------------------|
G----------------------------6---|-5------------------------------|
D-3-------------------6----------|---------2----------------------|
A--------------------------------|--------------------------------|
E--------------------------------|--------------------------------|
| |
G----------------------------6---|-5------------------------------|
D-3-------------------6----------|---------2----------------------|
A--------------------------------|--------------------------------|
E--------------------------------|--------------------------------|




e--------------------------------|--------------------------------|
B-----1-3-----1-3-----1-3-----1-3|-----1-3-----1-3-----1-3-----1-3|
G---0-------0-------0-------0----|---0-------0-------0-------0----|
D-1-------1-------1-------1------|-0-------0-------0-------0------|
A--------------------------------|--------------------------------|
E--------------------------------|--------------------------------|
| |
e--------------------------------|--------------------------------|
B--------------------------------|--------------------------------|
G-----------------0-----8-----7--|-----------------------7-----6--|
D-1-0-1--------------------------|-----------------5--------------|
A--------------------------------|-5-4-5--------------------------|
E--------------------------------|--------------------------------|

| |
G-----------------0-----8-----7--|-----------------------7-----6--|
D-1-0-1--------------------------|-----------------5--------------|
A--------------------------------|-5-4-5--------------------------|
E--------------------------------|--------------------------------|




(5/4 meter)
e---------------------------------5---5-8|
B---------------4-----4---4-7-4-7---7----|
G-----2-5---2-5-----5---5----------------|
D---4-----4-------7----------------------|
A-3--------------------------------------|
E----------------------------------------|
|
e----------------------------------------|
B----------------------------------------|
G-----------------------111411-----------|
D-----------10--10131013------13101310---|
A---9-129-12--12----------------------129|
E-8--------------------------------------|
|
G-----------------------111411-----------|
D-----------10--10131013------13101310---|
A---9-129-12--12----------------------129|
E-8--------------------------------------|

VGJam Tabs The Legend of Zelda - "Caves and dungeons"
Tabs database last modified Tuesday, 01-Nov-2016 19:14:53 UTC.
Copyright © 1999 - 2016 VideoGameJam.com. All rights reserved.