VGJam Tabs Ys
Ys
"In the Memory" - Bass tab
Platform(s):MSX
Composed by:Yuzo Koshiro
Soundtrack:Music from Ys (track 33)
Tabbed by:Lentium
Last modified:2002-06-26
Print it:Original file (.TXT)
Hear it:MIDI file
Ys 1 - In The Memory
Music from Ys - Track 33, Music from Ys Renewal - Track 33
Original Song by: Yuzo Koshiro
Tabbed for Bass by: Lentium
                    Lentium@ns.sympatico.ca
                    ICQ#: 73088333

This song just doesn't sound right without the bass so I decided to tab
it as well.  The tab is designed to follow along perfectly with the
accompanying guitar tab, bar for bar.

NOTE: The bass line for the Music from Ys version, and the Ys Renewal
versions are different.  In the Ys renewal version, at about bar 40
it's no longer simply [---1--1--0--0--]  but actually takes the shape of
bar 8 (that little run) and this continues until the end of the song.

Song is in standard tuning



1
|------|------|------|------|--------------------|--------------------|
|------|------|------|------|--------------------|--------------------|
|------|------|------|------|--5--------4--------|--3--------2--------|
|------|------|------|------|--------------------|--------------------|


7
----------------------|----------------------------------|
----------------------|-------------------7--5-----------|
--1----1----1----1----|--0----0--0--0--0--------8--7--8--|
----------------------|----------------------------------|
  .    .    .    .

9
----------------------|----------------------|----------------------|
----------------------|----------------------|----------------------|
--5----5----5----5----|--3----3----3----3----|--1----1----1----1----|
----------------------|----------------------|----------------------|


12

------------------------------|----------------------|----------------------|
---------------7--5-----------|----------------------|----------------------|
--0----0----0--------8--7--8--|--5----5----5----5----|--3----3----3----3----|
------------------------------|----------------------|----------------------|


15
--------------------------|-------------------7-----7--------|
--------------------------|----------------------------------|
--1----1--1--1--0----0----|--5----5--5--5--5-----5-----5--7--|
--------------------------|----------------------------------|


17

----------------------------------|----------------------------------|
----------------------------------|----------------------------------|
--8----8--8----8--3----3--3----3--|--5----5--5----5--0----0--0----0--|
----------------------------------|----------------------------------|


19

----------------------------------|------------------------------------|
----------------------------------|------------------------------------|
--1----1--1----1--3----3--3----3--|--8----8--8----8--3--3--3--3--8--3--|
----------------------------------|------------------------------------|


21

----------------------------------|----------------------------------|
----------------------------------|----------------------------------|
--8----8--8----8--3----3--3----3--|--5----5--5----5--0----0--0----0--|
----------------------------------|----------------------------------|


23

----------------------------------|------------------------------------|
----------------------------------|------------------------------------|
--1----1--1----1--3----3--3----3--|--0----0--0----0--5--5--5--3--3--3--|
----------------------------------|------------------------------------|


25
----------------------------------|----------------------|
----------------------------------|----------------------|
--1----1--1----1--3----3--0----0--|--5----5----5----5----|
----------------------------------|----------------------|


27

----------------------|----------------------|------------------------------|
----------------------|----------------------|---------------7--5-----------|
--3----3----3----3----|--1----1----1----1----|--0----0----0--------8--7--8--|
----------------------|----------------------|------------------------------|


30

----------------------|----------------------|--------------------------|
----------------------|----------------------|--------------------------|
--5----5----5----5----|--3----3----3----3----|--1----1--1--1--0----0----|
----------------------|----------------------|--------------------------|


33
--------------------|--------------------|--------------------|
--------------------|--------------------|--------------------|
--5--------3--------|--1--------0--------|--5--------3--------|
--------------------|--------------------|--------------------|


36
---------------------|----------------------|----------------------|
---------------------|----------------------|----------------------|
--1--------0----0----|--5----5----3----3----|--1----1----0----0----|
---------------------|----------------------|----------------------|


39

----------------------|----------------------|----------------------|
----------------------|----------------------|----------------------|
--5----5----3----3----|--1----1----0----0----|--5----5----3----3----|
----------------------|----------------------|----------------------|


42

----------------------|----------------------|----------------------|
----------------------|----------------------|----------------------|
--1----1----0----0----|--5----5----3----3----|--1----1----0----0----|
----------------------|----------------------|----------------------|


45

----------------------|----------------------|----------------------|
----------------------|----------------------|----------------------|
--5----5----3----3----|--1----1----0----0----|--5----5----3----3----|
----------------------|----------------------|----------------------|


48

----------------------|----------------------|----------------------|
----------------------|----------------------|----------------------|
--1----1----0----0----|--5----5----3----3----|--1----1----0----0----|
----------------------|----------------------|----------------------|


51

----------------------|----------------------|----------------------|
----------------------|----------------------|----------------------|
--5----5----3----3----|--1----1----0----0----|--5----5----3----3----|
----------------------|----------------------|----------------------|


54

----------------------|----------------------|------------------------------|
----------------------|----------------------|-----------------7--12--------|
--1----1----3----3----|--5----5----5----5----|--5--------5--9---------------|
----------------------|----------------------|-----3--5---------------------|
                                               (I'm not totally sure
                                                 about this part)


VGJam Tabs Ys - "In the Memory"
Tabs database last modified Tuesday, 01-Nov-2016 19:14:53 UTC.
Copyright © 1999 - 2016 VideoGameJam.com. All rights reserved.